ISO-10303-21;
HEADER;
FILE_DESCRIPTION (( 'STEP AP203' ),
    '1' );
FILE_NAME ('321434.step',
    '2021-11-26T10:03:47',
    ( '' ),
    ( '' ),
    'SwSTEP 2.0',
    'SolidWorks 2019',
    '' );
FILE_SCHEMA (( 'CONFIG_CONTROL_DESIGN' ));
ENDSEC;

DATA;
#1 = AXIS2_PLACEMENT_3D ( 'NONE', #200, #144, #98 ) ;
#2 = EDGE_LOOP ( 'NONE', ( #20 ) ) ;
#3 = LOCAL_TIME ( 11, 3, 47.00000000000000000, #55 ) ;
#4 = EDGE_CURVE ( 'NONE', #135, #135, #107, .T. ) ;
#5 = DIRECTION ( 'NONE',  ( -1.804946705821647977E-30, 1.000000000000000000, -5.169572827846470658E-16 ) ) ;
#6 = DIRECTION ( 'NONE',  ( 1.000000000000000000, 0.0000000000000000000, 0.0000000000000000000 ) ) ;
#7 = PRODUCT_DEFINITION_SHAPE ( 'NONE', 'NONE',  #87 ) ;
#8 = FACE_OUTER_BOUND ( 'NONE', #65, .T. ) ;
#9 = PERSON_AND_ORGANIZATION_ROLE ( 'creator' ) ;
#10 = ADVANCED_FACE ( 'NONE', ( #216, #188 ), #113, .T. ) ;
#11 = CARTESIAN_POINT ( 'NONE',  ( 0.0000000000000000000, 0.0000000000000000000, 0.0000000000000000000 ) ) ;
#12 = APPLICATION_PROTOCOL_DEFINITION ( 'international standard', 'config_control_design', 1994, #222 ) ;
#13 = CONICAL_SURFACE ( 'NONE', #152, 1.999999999999995337, 0.7853981633974516097 ) ;
#14 = CARTESIAN_POINT ( 'NONE',  ( 4.373493970659027499E-30, 6.475502343930777669E-31, 1.252618457960351132E-15 ) ) ;
#15 = PERSON_AND_ORGANIZATION ( #28, #177 ) ;
#16 = CARTESIAN_POINT ( 'NONE',  ( 2.793185071074506684E-13, -7.225416114969383207E-15, 80.00000000000000000 ) ) ;
#17 = PLANE ( 'NONE',  #189 ) ;
#18 = AXIS2_PLACEMENT_3D ( 'NONE', #208, #27, #5 ) ;
#19 = CYLINDRICAL_SURFACE ( 'NONE', #1, 1.999999999999993561 ) ;
#20 = ORIENTED_EDGE ( 'NONE', *, *, #69, .T. ) ;
#21 = ORIENTED_EDGE ( 'NONE', *, *, #115, .T. ) ;
#22 = CARTESIAN_POINT ( 'NONE',  ( 4.373493970659027499E-30, 6.475502343930777669E-31, 1.252618457960351132E-15 ) ) ;
#23 = DIRECTION ( 'NONE',  ( -3.491481338843133355E-15, -5.169572827846470658E-16, -1.000000000000000000 ) ) ;
#24 = CARTESIAN_POINT ( 'NONE',  ( 4.885231259955590439E-14, 1.999999999999990452, 13.99185842870425134 ) ) ;
#25 = DIRECTION ( 'NONE',  ( -3.491481338843133355E-15, 9.031770143711729009E-17, -1.000000000000000000 ) ) ;
#26 = LOCAL_TIME ( 11, 3, 47.00000000000000000, #94 ) ;
#27 = DIRECTION ( 'NONE',  ( -3.491481338843133355E-15, -5.169572827846470658E-16, -1.000000000000000000 ) ) ;
#28 = PERSON ( 'UNSPECIFIED', 'UNSPECIFIED', 'UNSPECIFIED', ('UNSPECIFIED'), ('UNSPECIFIED'), ('UNSPECIFIED') ) ;
#29 = DIRECTION ( 'NONE',  ( -3.491481338843133355E-15, -5.169572827846470658E-16, -1.000000000000000000 ) ) ;
#30 = FACE_OUTER_BOUND ( 'NONE', #99, .T. ) ;
#31 = DIRECTION ( 'NONE',  ( -3.491481338843133355E-15, 9.031770143711729009E-17, -1.000000000000000000 ) ) ;
#32 = PERSON_AND_ORGANIZATION ( #28, #177 ) ;
#33 = DIRECTION ( 'NONE',  ( -1.804946705821647977E-30, 1.000000000000000000, -5.169572827846470658E-16 ) ) ;
#34 = PRODUCT_DEFINITION_FORMATION_WITH_SPECIFIED_SOURCE ( 'ANY', '', #198, .NOT_KNOWN. ) ;
#35 = COORDINATED_UNIVERSAL_TIME_OFFSET ( 1, 0, .AHEAD. ) ;
#36 = FACE_OUTER_BOUND ( 'NONE', #165, .T. ) ;
#37 = DIRECTION ( 'NONE',  ( 0.0000000000000000000, 0.0000000000000000000, 1.000000000000000000 ) ) ;
#38 = CIRCLE ( 'NONE', #102, 2.653999999999999471 ) ;
#39 = FACE_OUTER_BOUND ( 'NONE', #215, .T. ) ;
#40 = FACE_OUTER_BOUND ( 'NONE', #44, .T. ) ;
#41 = AXIS2_PLACEMENT_3D ( 'NONE', #22, #23, #86 ) ;
#42 = AXIS2_PLACEMENT_3D ( 'NONE', #155, #126, #33 ) ;
#43 = ORIENTED_EDGE ( 'NONE', *, *, #224, .T. ) ;
#44 = EDGE_LOOP ( 'NONE', ( #121 ) ) ;
#45 = DIRECTION ( 'NONE',  ( 0.0000000000000000000, 1.000000000000000000, 0.0000000000000000000 ) ) ;
#46 = FACE_OUTER_BOUND ( 'NONE', #2, .T. ) ;
#47 = EDGE_CURVE ( 'NONE', #171, #171, #52, .T. ) ;
#48 = CARTESIAN_POINT ( 'NONE',  ( 4.885231259955590439E-14, -1.263712492114123682E-15, 13.99185842870425134 ) ) ;
#49 = PLANE ( 'NONE',  #205 ) ;
#50 = DATE_AND_TIME ( #158, #3 ) ;
#51 = PRODUCT_RELATED_PRODUCT_CATEGORY ( 'detail', '', ( #198 ) ) ;
#52 = CIRCLE ( 'NONE', #142, 2.653999999999998138 ) ;
#53 = MANIFOLD_SOLID_BREP ( 'Corps-Déplacer/Copier1[1]', #181 ) ;
#54 = DIRECTION ( 'NONE',  ( 3.491481338843133355E-15, 5.169572827846470658E-16, 1.000000000000000000 ) ) ;
#55 = COORDINATED_UNIVERSAL_TIME_OFFSET ( 1, 0, .AHEAD. ) ;
#56 = CC_DESIGN_PERSON_AND_ORGANIZATION_ASSIGNMENT ( #209, #95, ( #34 ) ) ;
#57 = DIRECTION ( 'NONE',  ( -3.491481338843133355E-15, 9.031770143711729009E-17, -1.000000000000000000 ) ) ;
#58 = EDGE_LOOP ( 'NONE', ( #43 ) ) ;
#59 = AXIS2_PLACEMENT_3D ( 'NONE', #14, #54, #71 ) ;
#60 = DIRECTION ( 'NONE',  ( 3.491481338843133355E-15, -9.031770143711729009E-17, 1.000000000000000000 ) ) ;
#61 = AXIS2_PLACEMENT_3D ( 'NONE', #48, #219, #127 ) ;
#62 = DIRECTION ( 'NONE',  ( 0.0000000000000000000, 1.000000000000000000, 0.0000000000000000000 ) ) ;
#63 = EDGE_CURVE ( 'NONE', #239, #239, #166, .T. ) ;
#64 = ORIENTED_EDGE ( 'NONE', *, *, #47, .T. ) ;
#65 = EDGE_LOOP ( 'NONE', ( #231 ) ) ;
#66 = CC_DESIGN_DATE_AND_TIME_ASSIGNMENT ( #194, #195, ( #87 ) ) ;
#67 = AXIS2_PLACEMENT_3D ( 'NONE', #105, #72, #45 ) ;
#68 = APPROVAL_PERSON_ORGANIZATION ( #15, #196, #134 ) ;
#69 = EDGE_CURVE ( 'NONE', #191, #191, #88, .T. ) ;
#70 = CARTESIAN_POINT ( 'NONE',  ( 1.396592535537253145E-15, 2.653999999999998138, 0.3999999999999999667 ) ) ;
#71 = DIRECTION ( 'NONE',  ( 1.804946705821648327E-30, -1.000000000000000000, 5.169572827846470658E-16 ) ) ;
#72 = DIRECTION ( 'NONE',  ( -3.491481338843133355E-15, 9.031770143711729009E-17, -1.000000000000000000 ) ) ;
#73 = CARTESIAN_POINT ( 'NONE',  ( 4.489729791010488582E-14, 2.653999999999998582, 12.85909720055417793 ) ) ;
#74 = CARTESIAN_POINT ( 'NONE',  ( 1.396592535537257878E-15, 2.067829131138595314E-16, 0.4000000000000012990 ) ) ;
#75 = CALENDAR_DATE ( 2021, 26, 11 ) ;
#76 = FACE_BOUND ( 'NONE', #201, .T. ) ;
#77 = ADVANCED_FACE ( 'NONE', ( #234, #40 ), #19, .T. ) ;
#78 = PERSON_AND_ORGANIZATION ( #28, #177 ) ;
#79 = EDGE_LOOP ( 'NONE', ( #138 ) ) ;
#80 = APPROVAL_PERSON_ORGANIZATION ( #32, #186, #137 ) ;
#81 = DIRECTION ( 'NONE',  ( -2.322146127369696245E-30, 1.000000000000000000, -6.536260271201252719E-16 ) ) ;
#82 = ADVANCED_FACE ( 'NONE', ( #85, #36 ), #13, .T. ) ;
#83 = AXIS2_PLACEMENT_3D ( 'NONE', #168, #169, #81 ) ;
#84 = SECURITY_CLASSIFICATION ( '', '', #160 ) ;
#85 = FACE_BOUND ( 'NONE', #58, .T. ) ;
#86 = DIRECTION ( 'NONE',  ( -1.804946705821647977E-30, 1.000000000000000000, -5.169572827846470658E-16 ) ) ;
#87 = PRODUCT_DEFINITION ( 'UNKNOWN', '', #34, #164 ) ;
#88 = CIRCLE ( 'NONE', #83, 2.653999999999991921 ) ;
#89 = VERTEX_POINT ( 'NONE', #73 ) ;
#90 = DIRECTION ( 'NONE',  ( 3.491481338843133355E-15, 5.169572827846470658E-16, 1.000000000000000000 ) ) ;
#91 = APPROVAL_STATUS ( 'not_yet_approved' ) ;
#92 = PERSON_AND_ORGANIZATION_ROLE ( 'design_supplier' ) ;
#93 = CARTESIAN_POINT ( 'NONE',  ( 4.489729791010488582E-14, -1.161404101710522945E-15, 12.85909720055417793 ) ) ;
#94 = COORDINATED_UNIVERSAL_TIME_OFFSET ( 1, 0, .AHEAD. ) ;
#95 = PERSON_AND_ORGANIZATION_ROLE ( 'creator' ) ;
#96 =( GEOMETRIC_REPRESENTATION_CONTEXT ( 3 ) GLOBAL_UNCERTAINTY_ASSIGNED_CONTEXT ( ( #146 ) ) GLOBAL_UNIT_ASSIGNED_CONTEXT ( ( #149, #187, #129 ) ) REPRESENTATION_CONTEXT ( 'NONE', 'WORKASPACE' ) );
#97 = EDGE_LOOP ( 'NONE', ( #21 ) ) ;
#98 = DIRECTION ( 'NONE',  ( 3.153425691349006731E-31, 1.000000000000000000, 9.031770143711729009E-17 ) ) ;
#99 = EDGE_LOOP ( 'NONE', ( #242 ) ) ;
#100 = DIRECTION ( 'NONE',  ( 1.804946705821647977E-30, -1.000000000000000000, 5.169572827846470658E-16 ) ) ;
#101 = ORIENTED_EDGE ( 'NONE', *, *, #4, .F. ) ;
#102 = AXIS2_PLACEMENT_3D ( 'NONE', #93, #31, #162 ) ;
#103 = VERTEX_POINT ( 'NONE', #235 ) ;
#104 = ADVANCED_FACE ( 'NONE', ( #39 ), #17, .T. ) ;
#105 = CARTESIAN_POINT ( 'NONE',  ( 2.779219145719134403E-13, -7.189289034394536528E-15, 79.60000000000000853 ) ) ;
#106 = CYLINDRICAL_SURFACE ( 'NONE', #42, 2.653999999999995030 ) ;
#107 = CIRCLE ( 'NONE', #67, 1.999999999999995337 ) ;
#108 = PLANE ( 'NONE',  #18 ) ;
#109 = VERTEX_POINT ( 'NONE', #24 ) ;
#110 = CARTESIAN_POINT ( 'NONE',  ( 2.793185071074506684E-13, -7.225416114969383207E-15, 80.00000000000000000 ) ) ;
#111 = CALENDAR_DATE ( 2021, 26, 11 ) ;
#112 = CARTESIAN_POINT ( 'NONE',  ( 4.489729791010489844E-14, 2.653999999999998582, 12.85909720055418148 ) ) ;
#113 = CONICAL_SURFACE ( 'NONE', #241, 2.653999999999999471, 0.5235987755982930425 ) ;
#114 = APPLICATION_PROTOCOL_DEFINITION ( 'international standard', 'config_control_design', 1994, #206 ) ;
#115 = EDGE_CURVE ( 'NONE', #89, #89, #38, .T. ) ;
#116 = APPROVAL_STATUS ( 'not_yet_approved' ) ;
#117 = CARTESIAN_POINT ( 'NONE',  ( 2.779219145719134403E-13, 1.999999999999988010, 79.60000000000000853 ) ) ;
#118 = DIRECTION ( 'NONE',  ( -3.491481338843133355E-15, 9.031770143711729009E-17, -1.000000000000000000 ) ) ;
#119 = PERSON_AND_ORGANIZATION_ROLE ( 'design_owner' ) ;
#120 = AXIS2_PLACEMENT_3D ( 'NONE', #16, #60, #223 ) ;
#121 = ORIENTED_EDGE ( 'NONE', *, *, #156, .F. ) ;
#122 = EDGE_LOOP ( 'NONE', ( #185 ) ) ;
#123 = CARTESIAN_POINT ( 'NONE',  ( -6.842277657836020854E-46, 2.423059892324148201, 0.0000000000000000000 ) ) ;
#124 = ADVANCED_FACE ( 'NONE', ( #139, #76 ), #173, .T. ) ;
#125 = CARTESIAN_POINT ( 'NONE',  ( 4.489729791010488582E-14, -1.161404101710522945E-15, 12.85909720055417793 ) ) ;
#126 = DIRECTION ( 'NONE',  ( -3.491481338843133355E-15, -5.169572827846470658E-16, -1.000000000000000000 ) ) ;
#127 = DIRECTION ( 'NONE',  ( 0.0000000000000000000, 1.000000000000000000, 0.0000000000000000000 ) ) ;
#128 = CC_DESIGN_APPROVAL ( #202, ( #87 ) ) ;
#129 =( NAMED_UNIT ( * ) SI_UNIT ( $, .STERADIAN. ) SOLID_ANGLE_UNIT ( ) );
#130 = DATE_AND_TIME ( #227, #26 ) ;
#131 = DATE_AND_TIME ( #179, #143 ) ;
#132 = ADVANCED_FACE ( 'NONE', ( #46, #8 ), #106, .T. ) ;
#133 = CC_DESIGN_APPROVAL ( #196, ( #34 ) ) ;
#134 = APPROVAL_ROLE ( '' ) ;
#135 = VERTEX_POINT ( 'NONE', #117 ) ;
#136 = CARTESIAN_POINT ( 'NONE',  ( 2.779219145719134403E-13, -7.189289034394536528E-15, 79.60000000000000853 ) ) ;
#137 = APPROVAL_ROLE ( '' ) ;
#138 = ORIENTED_EDGE ( 'NONE', *, *, #4, .T. ) ;
#139 = FACE_OUTER_BOUND ( 'NONE', #141, .T. ) ;
#140 = ORIENTED_EDGE ( 'NONE', *, *, #224, .F. ) ;
#141 = EDGE_LOOP ( 'NONE', ( #64 ) ) ;
#142 = AXIS2_PLACEMENT_3D ( 'NONE', #74, #29, #157 ) ;
#143 = LOCAL_TIME ( 11, 3, 47.00000000000000000, #210 ) ;
#144 = DIRECTION ( 'NONE',  ( -3.491481338843133355E-15, 9.031770143711729009E-17, -1.000000000000000000 ) ) ;
#145 = ORIENTED_EDGE ( 'NONE', *, *, #156, .T. ) ;
#146 = UNCERTAINTY_MEASURE_WITH_UNIT (LENGTH_MEASURE( 1.000000000000000082E-05 ), #149, 'distance_accuracy_value', 'NONE');
#147 = CARTESIAN_POINT ( 'NONE',  ( 4.489729791010488582E-14, 2.653999999999998582, 12.85909720055417793 ) ) ;
#148 = AXIS2_PLACEMENT_3D ( 'NONE', #11, #37, #6 ) ;
#149 =( LENGTH_UNIT ( ) NAMED_UNIT ( * ) SI_UNIT ( .MILLI., .METRE. ) );
#150 = CC_DESIGN_PERSON_AND_ORGANIZATION_ASSIGNMENT ( #174, #119, ( #198 ) ) ;
#151 = FACE_OUTER_BOUND ( 'NONE', #97, .T. ) ;
#152 = AXIS2_PLACEMENT_3D ( 'NONE', #136, #118, #62 ) ;
#153 = CC_DESIGN_APPROVAL ( #186, ( #84 ) ) ;
#154 = PERSON_AND_ORGANIZATION ( #28, #177 ) ;
#155 = CARTESIAN_POINT ( 'NONE',  ( 0.0000000000000000000, 0.0000000000000000000, 0.0000000000000000000 ) ) ;
#156 = EDGE_CURVE ( 'NONE', #109, #109, #204, .T. ) ;
#157 = DIRECTION ( 'NONE',  ( -1.814176662007570834E-30, 1.000000000000000000, -5.106453336875966423E-16 ) ) ;
#158 = CALENDAR_DATE ( 2021, 26, 11 ) ;
#159 = DATE_TIME_ROLE ( 'classification_date' ) ;
#160 = SECURITY_CLASSIFICATION_LEVEL ( 'unclassified' ) ;
#161 = CC_DESIGN_PERSON_AND_ORGANIZATION_ASSIGNMENT ( #78, #9, ( #87 ) ) ;
#162 = DIRECTION ( 'NONE',  ( 0.0000000000000000000, 1.000000000000000000, 0.0000000000000000000 ) ) ;
#163 = ORIENTED_EDGE ( 'NONE', *, *, #69, .F. ) ;
#164 = DESIGN_CONTEXT ( 'detailed design', #222, 'design' ) ;
#165 = EDGE_LOOP ( 'NONE', ( #101 ) ) ;
#166 = CIRCLE ( 'NONE', #41, 2.423059892324148201 ) ;
#167 = EDGE_LOOP ( 'NONE', ( #140 ) ) ;
#168 = CARTESIAN_POINT ( 'NONE',  ( 4.489729791010489213E-14, 6.647603947862150130E-15, 12.85909720055417971 ) ) ;
#169 = DIRECTION ( 'NONE',  ( -3.491481338843133355E-15, -5.169572827846470658E-16, -1.000000000000000000 ) ) ;
#170 = LOCAL_TIME ( 11, 3, 47.00000000000000000, #213 ) ;
#171 = VERTEX_POINT ( 'NONE', #70 ) ;
#172 = DIRECTION ( 'NONE',  ( 0.0000000000000000000, 1.000000000000000000, 0.0000000000000000000 ) ) ;
#173 = CONICAL_SURFACE ( 'NONE', #59, 2.423059892324148201, 0.5235987755982978165 ) ;
#174 = PERSON_AND_ORGANIZATION ( #28, #177 ) ;
#175 = PERSON_AND_ORGANIZATION ( #28, #177 ) ;
#176 = DIRECTION ( 'NONE',  ( 3.153425691349006731E-31, 1.000000000000000000, 9.031770143711729009E-17 ) ) ;
#177 = ORGANIZATION ( 'UNSPECIFIED', 'UNSPECIFIED', '' ) ;
#178 = MECHANICAL_CONTEXT ( 'NONE', #206, 'mechanical' ) ;
#179 = CALENDAR_DATE ( 2021, 26, 11 ) ;
#180 = CARTESIAN_POINT ( 'NONE',  ( 4.489729791010489844E-14, 6.647603947862150919E-15, 12.85909720055418148 ) ) ;
#181 = CLOSED_SHELL ( 'NONE', ( #243, #82, #77, #10, #232 ) ) ;
#182 = AXIS2_PLACEMENT_3D ( 'NONE', #110, #190, #172 ) ;
#183 = APPROVAL_PERSON_ORGANIZATION ( #197, #202, #193 ) ;
#184 = ADVANCED_FACE ( 'NONE', ( #30 ), #108, .T. ) ;
#185 = ORIENTED_EDGE ( 'NONE', *, *, #115, .F. ) ;
#186 = APPROVAL ( #211, 'UNSPECIFIED' ) ;
#187 =( NAMED_UNIT ( * ) PLANE_ANGLE_UNIT ( ) SI_UNIT ( $, .RADIAN. ) );
#188 = FACE_OUTER_BOUND ( 'NONE', #122, .T. ) ;
#189 = AXIS2_PLACEMENT_3D ( 'NONE', #180, #90, #100 ) ;
#190 = DIRECTION ( 'NONE',  ( -3.491481338843133355E-15, 9.031770143711729009E-17, -1.000000000000000000 ) ) ;
#191 = VERTEX_POINT ( 'NONE', #147 ) ;
#192 = LOCAL_TIME ( 11, 3, 47.00000000000000000, #35 ) ;
#193 = APPROVAL_ROLE ( '' ) ;
#194 = DATE_AND_TIME ( #75, #192 ) ;
#195 = DATE_TIME_ROLE ( 'creation_date' ) ;
#196 = APPROVAL ( #91, 'UNSPECIFIED' ) ;
#197 = PERSON_AND_ORGANIZATION ( #28, #177 ) ;
#198 = PRODUCT ( '321434', '321434', '', ( #178 ) ) ;
#199 = EDGE_LOOP ( 'NONE', ( #145 ) ) ;
#200 = CARTESIAN_POINT ( 'NONE',  ( 0.0000000000000000000, 0.0000000000000000000, 0.0000000000000000000 ) ) ;
#201 = EDGE_LOOP ( 'NONE', ( #229 ) ) ;
#202 = APPROVAL ( #116, 'UNSPECIFIED' ) ;
#203 = CC_DESIGN_PERSON_AND_ORGANIZATION_ASSIGNMENT ( #175, #226, ( #84 ) ) ;
#204 = CIRCLE ( 'NONE', #61, 1.999999999999991784 ) ;
#205 = AXIS2_PLACEMENT_3D ( 'NONE', #112, #57, #176 ) ;
#206 = APPLICATION_CONTEXT ( 'configuration controlled 3d designs of mechanical parts and assemblies' ) ;
#207 = CC_DESIGN_SECURITY_CLASSIFICATION ( #84, ( #34 ) ) ;
#208 = CARTESIAN_POINT ( 'NONE',  ( -2.186746985329513749E-30, 2.423059892324148201, -6.263092289801755661E-16 ) ) ;
#209 = PERSON_AND_ORGANIZATION ( #28, #177 ) ;
#210 = COORDINATED_UNIVERSAL_TIME_OFFSET ( 1, 0, .AHEAD. ) ;
#211 = APPROVAL_STATUS ( 'not_yet_approved' ) ;
#212 = ADVANCED_BREP_SHAPE_REPRESENTATION ( '321434', ( #53, #214, #148 ), #96 ) ;
#213 = COORDINATED_UNIVERSAL_TIME_OFFSET ( 1, 0, .AHEAD. ) ;
#214 = MANIFOLD_SOLID_BREP ( 'Corps-Déplacer/Copier1[2]', #218 ) ;
#215 = EDGE_LOOP ( 'NONE', ( #163 ) ) ;
#216 = FACE_BOUND ( 'NONE', #199, .T. ) ;
#217 = DIRECTION ( 'NONE',  ( 0.0000000000000000000, 1.000000000000000000, 0.0000000000000000000 ) ) ;
#218 = CLOSED_SHELL ( 'NONE', ( #104, #132, #124, #184 ) ) ;
#219 = DIRECTION ( 'NONE',  ( -3.491481338843133355E-15, 9.031770143711729009E-17, -1.000000000000000000 ) ) ;
#220 = SHAPE_DEFINITION_REPRESENTATION ( #7, #212 ) ;
#221 = APPROVAL_DATE_TIME ( #237, #186 ) ;
#222 = APPLICATION_CONTEXT ( 'configuration controlled 3d designs of mechanical parts and assemblies' ) ;
#223 = DIRECTION ( 'NONE',  ( -3.153425691349006731E-31, -1.000000000000000000, -9.031770143711729009E-17 ) ) ;
#224 = EDGE_CURVE ( 'NONE', #103, #103, #233, .T. ) ;
#225 = PLANE ( 'NONE',  #120 ) ;
#226 = PERSON_AND_ORGANIZATION_ROLE ( 'classification_officer' ) ;
#227 = CALENDAR_DATE ( 2021, 26, 11 ) ;
#228 = FACE_OUTER_BOUND ( 'NONE', #167, .T. ) ;
#229 = ORIENTED_EDGE ( 'NONE', *, *, #63, .F. ) ;
#230 = CC_DESIGN_DATE_AND_TIME_ASSIGNMENT ( #50, #159, ( #84 ) ) ;
#231 = ORIENTED_EDGE ( 'NONE', *, *, #47, .F. ) ;
#232 = ADVANCED_FACE ( 'NONE', ( #151 ), #49, .T. ) ;
#233 = CIRCLE ( 'NONE', #182, 1.599999999999994982 ) ;
#234 = FACE_OUTER_BOUND ( 'NONE', #79, .T. ) ;
#235 = CARTESIAN_POINT ( 'NONE',  ( 2.793185071074506684E-13, 1.599999999999987876, 80.00000000000000000 ) ) ;
#236 = CC_DESIGN_PERSON_AND_ORGANIZATION_ASSIGNMENT ( #154, #92, ( #34 ) ) ;
#237 = DATE_AND_TIME ( #111, #170 ) ;
#238 = APPROVAL_DATE_TIME ( #130, #196 ) ;
#239 = VERTEX_POINT ( 'NONE', #123 ) ;
#240 = APPROVAL_DATE_TIME ( #131, #202 ) ;
#241 = AXIS2_PLACEMENT_3D ( 'NONE', #125, #25, #217 ) ;
#242 = ORIENTED_EDGE ( 'NONE', *, *, #63, .T. ) ;
#243 = ADVANCED_FACE ( 'NONE', ( #228 ), #225, .T. ) ;
ENDSEC;
END-ISO-10303-21;
