ISO-10303-21;
HEADER;
FILE_DESCRIPTION (( 'STEP AP203' ),
    '1' );
FILE_NAME ('321433.step',
    '2021-11-26T10:03:46',
    ( '' ),
    ( '' ),
    'SwSTEP 2.0',
    'SolidWorks 2019',
    '' );
FILE_SCHEMA (( 'CONFIG_CONTROL_DESIGN' ));
ENDSEC;

DATA;
#1 = PERSON_AND_ORGANIZATION ( #9, #11 ) ;
#2 = FACE_OUTER_BOUND ( 'NONE', #132, .T. ) ;
#3 = EDGE_LOOP ( 'NONE', ( #185 ) ) ;
#4 = DIRECTION ( 'NONE',  ( -3.491481338843133355E-15, 9.031770143711729009E-17, -1.000000000000000000 ) ) ;
#5 = CALENDAR_DATE ( 2021, 26, 11 ) ;
#6 = DIRECTION ( 'NONE',  ( 3.153425691349006731E-31, 1.000000000000000000, 9.031770143711729009E-17 ) ) ;
#7 = DIRECTION ( 'NONE',  ( 3.491481338843133355E-15, 5.164445180782592433E-16, 1.000000000000000000 ) ) ;
#8 = DIRECTION ( 'NONE',  ( -3.491481338843133355E-15, 9.031770143711729009E-17, -1.000000000000000000 ) ) ;
#9 = PERSON ( 'UNSPECIFIED', 'UNSPECIFIED', 'UNSPECIFIED', ('UNSPECIFIED'), ('UNSPECIFIED'), ('UNSPECIFIED') ) ;
#10 = PRODUCT_RELATED_PRODUCT_CATEGORY ( 'detail', '', ( #85 ) ) ;
#11 = ORGANIZATION ( 'UNSPECIFIED', 'UNSPECIFIED', '' ) ;
#12 =( NAMED_UNIT ( * ) SI_UNIT ( $, .STERADIAN. ) SOLID_ANGLE_UNIT ( ) );
#13 = ORIENTED_EDGE ( 'NONE', *, *, #84, .F. ) ;
#14 = APPLICATION_CONTEXT ( 'configuration controlled 3d designs of mechanical parts and assemblies' ) ;
#15 = PERSON_AND_ORGANIZATION_ROLE ( 'creator' ) ;
#16 = FACE_BOUND ( 'NONE', #50, .T. ) ;
#17 = CIRCLE ( 'NONE', #91, 1.999999999999995337 ) ;
#18 = APPROVAL_DATE_TIME ( #192, #76 ) ;
#19 = ADVANCED_FACE ( 'NONE', ( #189, #16 ), #122, .T. ) ;
#20 = ORIENTED_EDGE ( 'NONE', *, *, #79, .F. ) ;
#21 = DIRECTION ( 'NONE',  ( -3.491481338843133355E-15, 9.031770143711729009E-17, -1.000000000000000000 ) ) ;
#22 = CIRCLE ( 'NONE', #184, 2.648999999999991584 ) ;
#23 = FACE_BOUND ( 'NONE', #64, .T. ) ;
#24 = AXIS2_PLACEMENT_3D ( 'NONE', #116, #151, #129 ) ;
#25 = ADVANCED_FACE ( 'NONE', ( #195 ), #53, .T. ) ;
#26 = VERTEX_POINT ( 'NONE', #31 ) ;
#27 = EDGE_LOOP ( 'NONE', ( #29 ) ) ;
#28 = PERSON_AND_ORGANIZATION ( #9, #11 ) ;
#29 = ORIENTED_EDGE ( 'NONE', *, *, #150, .F. ) ;
#30 = APPLICATION_CONTEXT ( 'configuration controlled 3d designs of mechanical parts and assemblies' ) ;
#31 = CARTESIAN_POINT ( 'NONE',  ( 4.492753502546766086E-14, 2.648999999999998245, 12.86775745459202192 ) ) ;
#32 = AXIS2_PLACEMENT_3D ( 'NONE', #130, #21, #99 ) ;
#33 = ADVANCED_FACE ( 'NONE', ( #170, #2 ), #173, .T. ) ;
#34 = DATE_TIME_ROLE ( 'creation_date' ) ;
#35 = DIRECTION ( 'NONE',  ( -3.491481338843133355E-15, 9.031770143711729009E-17, -1.000000000000000000 ) ) ;
#36 = SHAPE_DEFINITION_REPRESENTATION ( #106, #48 ) ;
#37 = CYLINDRICAL_SURFACE ( 'NONE', #156, 1.999999999999993561 ) ;
#38 = APPROVAL_PERSON_ORGANIZATION ( #199, #220, #181 ) ;
#39 = DIRECTION ( 'NONE',  ( 1.803156397418077537E-30, -1.000000000000000000, 5.164445180782592433E-16 ) ) ;
#40 = EDGE_CURVE ( 'NONE', #208, #208, #219, .T. ) ;
#41 =( NAMED_UNIT ( * ) PLANE_ANGLE_UNIT ( ) SI_UNIT ( $, .RADIAN. ) );
#42 = EDGE_LOOP ( 'NONE', ( #81 ) ) ;
#43 = AXIS2_PLACEMENT_3D ( 'NONE', #56, #149, #210 ) ;
#44 =( LENGTH_UNIT ( ) NAMED_UNIT ( * ) SI_UNIT ( .MILLI., .METRE. ) );
#45 = CALENDAR_DATE ( 2021, 26, 11 ) ;
#46 = PERSON_AND_ORGANIZATION ( #9, #11 ) ;
#47 = EDGE_LOOP ( 'NONE', ( #87 ) ) ;
#48 = ADVANCED_BREP_SHAPE_REPRESENTATION ( '321433', ( #237, #66, #96 ), #168 ) ;
#49 = AXIS2_PLACEMENT_3D ( 'NONE', #207, #133, #223 ) ;
#50 = EDGE_LOOP ( 'NONE', ( #108 ) ) ;
#51 = ORIENTED_EDGE ( 'NONE', *, *, #40, .T. ) ;
#52 = ADVANCED_FACE ( 'NONE', ( #93 ), #171, .T. ) ;
#53 = PLANE ( 'NONE',  #89 ) ;
#54 = DIRECTION ( 'NONE',  ( -1.803156397418077537E-30, 1.000000000000000000, -5.164445180782592433E-16 ) ) ;
#55 = CARTESIAN_POINT ( 'NONE',  ( 4.492753502546766717E-14, 2.648999999999998245, 12.86775745459202369 ) ) ;
#56 = CARTESIAN_POINT ( 'NONE',  ( 4.360140164184356564E-30, 6.449326997096175812E-31, 1.248793775775712601E-15 ) ) ;
#57 = CC_DESIGN_PERSON_AND_ORGANIZATION_ASSIGNMENT ( #140, #15, ( #141 ) ) ;
#58 = DIRECTION ( 'NONE',  ( -1.803156397418077187E-30, 1.000000000000000000, -5.164445180782592433E-16 ) ) ;
#59 = CLOSED_SHELL ( 'NONE', ( #25, #234, #226, #33, #120 ) ) ;
#60 = DIRECTION ( 'NONE',  ( 0.0000000000000000000, 1.000000000000000000, 0.0000000000000000000 ) ) ;
#61 = DIRECTION ( 'NONE',  ( 0.0000000000000000000, 1.000000000000000000, 0.0000000000000000000 ) ) ;
#62 = CARTESIAN_POINT ( 'NONE',  ( 0.0000000000000000000, 2.418059892324148752, 0.0000000000000000000 ) ) ;
#63 = CIRCLE ( 'NONE', #49, 2.648999999999998689 ) ;
#64 = EDGE_LOOP ( 'NONE', ( #204 ) ) ;
#65 = DATE_AND_TIME ( #45, #180 ) ;
#66 = MANIFOLD_SOLID_BREP ( 'Corps-Déplacer/Copier1[2]', #167 ) ;
#67 = LOCAL_TIME ( 11, 3, 46.00000000000000000, #169 ) ;
#68 = VERTEX_POINT ( 'NONE', #62 ) ;
#69 = COORDINATED_UNIVERSAL_TIME_OFFSET ( 1, 0, .AHEAD. ) ;
#70 = COORDINATED_UNIVERSAL_TIME_OFFSET ( 1, 0, .AHEAD. ) ;
#71 = LOCAL_TIME ( 11, 3, 46.00000000000000000, #73 ) ;
#72 = DIRECTION ( 'NONE',  ( -3.153425691349006731E-31, -1.000000000000000000, -9.031770143711729009E-17 ) ) ;
#73 = COORDINATED_UNIVERSAL_TIME_OFFSET ( 1, 0, .AHEAD. ) ;
#74 = EDGE_LOOP ( 'NONE', ( #126 ) ) ;
#75 = CARTESIAN_POINT ( 'NONE',  ( 2.779219145719134403E-13, -7.189289034394536528E-15, 79.60000000000000853 ) ) ;
#76 = APPROVAL ( #191, 'UNSPECIFIED' ) ;
#77 = CARTESIAN_POINT ( 'NONE',  ( 4.492753502546766086E-14, -1.162186275949082635E-15, 12.86775745459202192 ) ) ;
#78 = SECURITY_CLASSIFICATION ( '', '', #113 ) ;
#79 = EDGE_CURVE ( 'NONE', #146, #146, #63, .T. ) ;
#80 = ADVANCED_FACE ( 'NONE', ( #212 ), #134, .T. ) ;
#81 = ORIENTED_EDGE ( 'NONE', *, *, #159, .F. ) ;
#82 = MECHANICAL_CONTEXT ( 'NONE', #14, 'mechanical' ) ;
#83 = EDGE_LOOP ( 'NONE', ( #20 ) ) ;
#84 = EDGE_CURVE ( 'NONE', #218, #218, #190, .T. ) ;
#85 = PRODUCT ( '321433', '321433', '', ( #82 ) ) ;
#86 = COORDINATED_UNIVERSAL_TIME_OFFSET ( 1, 0, .AHEAD. ) ;
#87 = ORIENTED_EDGE ( 'NONE', *, *, #84, .T. ) ;
#88 = CARTESIAN_POINT ( 'NONE',  ( 2.793185071074506684E-13, -7.225416114969383207E-15, 80.00000000000000000 ) ) ;
#89 = AXIS2_PLACEMENT_3D ( 'NONE', #88, #166, #72 ) ;
#90 = PERSON_AND_ORGANIZATION_ROLE ( 'design_supplier' ) ;
#91 = AXIS2_PLACEMENT_3D ( 'NONE', #228, #35, #61 ) ;
#92 = EDGE_LOOP ( 'NONE', ( #187 ) ) ;
#93 = FACE_OUTER_BOUND ( 'NONE', #109, .T. ) ;
#94 = FACE_OUTER_BOUND ( 'NONE', #3, .T. ) ;
#95 = EDGE_CURVE ( 'NONE', #68, #68, #128, .T. ) ;
#96 = AXIS2_PLACEMENT_3D ( 'NONE', #158, #182, #127 ) ;
#97 = DIRECTION ( 'NONE',  ( -3.491481338843133355E-15, -5.164445180782592433E-16, -1.000000000000000000 ) ) ;
#98 = DIRECTION ( 'NONE',  ( -3.491481338843133355E-15, -5.164445180782592433E-16, -1.000000000000000000 ) ) ;
#99 = DIRECTION ( 'NONE',  ( 0.0000000000000000000, 1.000000000000000000, 0.0000000000000000000 ) ) ;
#100 = CARTESIAN_POINT ( 'NONE',  ( 4.360140164184356564E-30, 6.449326997096175812E-31, 1.248793775775712601E-15 ) ) ;
#101 = AXIS2_PLACEMENT_3D ( 'NONE', #75, #8, #174 ) ;
#102 = CC_DESIGN_DATE_AND_TIME_ASSIGNMENT ( #222, #34, ( #179 ) ) ;
#103 = ORIENTED_EDGE ( 'NONE', *, *, #79, .T. ) ;
#104 = VERTEX_POINT ( 'NONE', #224 ) ;
#105 = CARTESIAN_POINT ( 'NONE',  ( 4.492753502546766086E-14, 2.648999999999998245, 12.86775745459202192 ) ) ;
#106 = PRODUCT_DEFINITION_SHAPE ( 'NONE', 'NONE',  #179 ) ;
#107 = CARTESIAN_POINT ( 'NONE',  ( 2.779219145719134403E-13, 1.999999999999988010, 79.60000000000000853 ) ) ;
#108 = ORIENTED_EDGE ( 'NONE', *, *, #95, .F. ) ;
#109 = EDGE_LOOP ( 'NONE', ( #161 ) ) ;
#110 = CALENDAR_DATE ( 2021, 26, 11 ) ;
#111 = PERSON_AND_ORGANIZATION ( #9, #11 ) ;
#112 = CONICAL_SURFACE ( 'NONE', #101, 1.999999999999995337, 0.7853981633974516097 ) ;
#113 = SECURITY_CLASSIFICATION_LEVEL ( 'unclassified' ) ;
#114 = CARTESIAN_POINT ( 'NONE',  ( 4.492753502546766717E-14, 6.645482797384704775E-15, 12.86775745459202369 ) ) ;
#115 = DATE_TIME_ROLE ( 'classification_date' ) ;
#116 = CARTESIAN_POINT ( 'NONE',  ( 4.492753502546766086E-14, -1.162186275949082635E-15, 12.86775745459202192 ) ) ;
#117 = AXIS2_PLACEMENT_3D ( 'NONE', #55, #4, #6 ) ;
#118 = FACE_OUTER_BOUND ( 'NONE', #74, .T. ) ;
#119 = AXIS2_PLACEMENT_3D ( 'NONE', #148, #206, #193 ) ;
#120 = ADVANCED_FACE ( 'NONE', ( #233 ), #176, .T. ) ;
#121 = PERSON_AND_ORGANIZATION ( #9, #11 ) ;
#122 = CONICAL_SURFACE ( 'NONE', #43, 2.418059892324148752, 0.5235987755982978165 ) ;
#123 = AXIS2_PLACEMENT_3D ( 'NONE', #77, #194, #60 ) ;
#124 = CARTESIAN_POINT ( 'NONE',  ( 4.885231259955590439E-14, 1.999999999999990452, 13.99185842870425134 ) ) ;
#125 = VERTEX_POINT ( 'NONE', #107 ) ;
#126 = ORIENTED_EDGE ( 'NONE', *, *, #137, .T. ) ;
#127 = DIRECTION ( 'NONE',  ( 1.000000000000000000, 0.0000000000000000000, 0.0000000000000000000 ) ) ;
#128 = CIRCLE ( 'NONE', #235, 2.418059892324148752 ) ;
#129 = DIRECTION ( 'NONE',  ( 0.0000000000000000000, 1.000000000000000000, 0.0000000000000000000 ) ) ;
#130 = CARTESIAN_POINT ( 'NONE',  ( 2.793185071074506684E-13, -7.225416114969383207E-15, 80.00000000000000000 ) ) ;
#131 = PERSON_AND_ORGANIZATION_ROLE ( 'classification_officer' ) ;
#132 = EDGE_LOOP ( 'NONE', ( #13 ) ) ;
#133 = DIRECTION ( 'NONE',  ( -3.491481338843133355E-15, -5.164445180782592433E-16, -1.000000000000000000 ) ) ;
#134 = PLANE ( 'NONE',  #138 ) ;
#135 = CC_DESIGN_APPROVAL ( #220, ( #179 ) ) ;
#136 = CARTESIAN_POINT ( 'NONE',  ( 0.0000000000000000000, 0.0000000000000000000, 0.0000000000000000000 ) ) ;
#137 = EDGE_CURVE ( 'NONE', #125, #125, #17, .T. ) ;
#138 = AXIS2_PLACEMENT_3D ( 'NONE', #114, #7, #39 ) ;
#139 = DESIGN_CONTEXT ( 'detailed design', #30, 'design' ) ;
#140 = PERSON_AND_ORGANIZATION ( #9, #11 ) ;
#141 = PRODUCT_DEFINITION_FORMATION_WITH_SPECIFIED_SOURCE ( 'ANY', '', #85, .NOT_KNOWN. ) ;
#142 = PERSON_AND_ORGANIZATION_ROLE ( 'design_owner' ) ;
#143 = EDGE_LOOP ( 'NONE', ( #164 ) ) ;
#144 = CALENDAR_DATE ( 2021, 26, 11 ) ;
#145 = UNCERTAINTY_MEASURE_WITH_UNIT (LENGTH_MEASURE( 1.000000000000000082E-05 ), #44, 'distance_accuracy_value', 'NONE');
#146 = VERTEX_POINT ( 'NONE', #241 ) ;
#147 = CIRCLE ( 'NONE', #32, 1.599999999999994982 ) ;
#148 = CARTESIAN_POINT ( 'NONE',  ( 4.885231259955590439E-14, -1.263712492114123682E-15, 13.99185842870425134 ) ) ;
#149 = DIRECTION ( 'NONE',  ( 3.491481338843133355E-15, 5.164445180782592433E-16, 1.000000000000000000 ) ) ;
#150 = EDGE_CURVE ( 'NONE', #26, #26, #22, .T. ) ;
#151 = DIRECTION ( 'NONE',  ( -3.491481338843133355E-15, 9.031770143711729009E-17, -1.000000000000000000 ) ) ;
#152 = CARTESIAN_POINT ( 'NONE',  ( -2.180070082092178282E-30, 2.418059892324148752, -6.243968878878563005E-16 ) ) ;
#153 = CARTESIAN_POINT ( 'NONE',  ( 4.492753502546766717E-14, 6.645482797384706352E-15, 12.86775745459202369 ) ) ;
#154 = DIRECTION ( 'NONE',  ( -2.326529189142761094E-30, 1.000000000000000000, -6.548597493306200670E-16 ) ) ;
#155 = FACE_OUTER_BOUND ( 'NONE', #143, .T. ) ;
#156 = AXIS2_PLACEMENT_3D ( 'NONE', #136, #172, #216 ) ;
#157 = DIRECTION ( 'NONE',  ( -3.491481338843133355E-15, -5.164445180782592433E-16, -1.000000000000000000 ) ) ;
#158 = CARTESIAN_POINT ( 'NONE',  ( 0.0000000000000000000, 0.0000000000000000000, 0.0000000000000000000 ) ) ;
#159 = EDGE_CURVE ( 'NONE', #104, #104, #147, .T. ) ;
#160 = APPROVAL_PERSON_ORGANIZATION ( #1, #76, #231 ) ;
#161 = ORIENTED_EDGE ( 'NONE', *, *, #95, .T. ) ;
#162 = APPLICATION_PROTOCOL_DEFINITION ( 'international standard', 'config_control_design', 1994, #14 ) ;
#163 = ADVANCED_FACE ( 'NONE', ( #155, #214 ), #230, .T. ) ;
#164 = ORIENTED_EDGE ( 'NONE', *, *, #150, .T. ) ;
#165 = PERSON_AND_ORGANIZATION ( #9, #11 ) ;
#166 = DIRECTION ( 'NONE',  ( 3.491481338843133355E-15, -9.031770143711729009E-17, 1.000000000000000000 ) ) ;
#167 = CLOSED_SHELL ( 'NONE', ( #80, #163, #19, #52 ) ) ;
#168 =( GEOMETRIC_REPRESENTATION_CONTEXT ( 3 ) GLOBAL_UNCERTAINTY_ASSIGNED_CONTEXT ( ( #145 ) ) GLOBAL_UNIT_ASSIGNED_CONTEXT ( ( #44, #41, #12 ) ) REPRESENTATION_CONTEXT ( 'NONE', 'WORKASPACE' ) );
#169 = COORDINATED_UNIVERSAL_TIME_OFFSET ( 1, 0, .AHEAD. ) ;
#170 = FACE_BOUND ( 'NONE', #242, .T. ) ;
#171 = PLANE ( 'NONE',  #225 ) ;
#172 = DIRECTION ( 'NONE',  ( -3.491481338843133355E-15, 9.031770143711729009E-17, -1.000000000000000000 ) ) ;
#173 = CONICAL_SURFACE ( 'NONE', #24, 2.648999999999999577, 0.5235987755982931535 ) ;
#174 = DIRECTION ( 'NONE',  ( 0.0000000000000000000, 1.000000000000000000, 0.0000000000000000000 ) ) ;
#175 = CC_DESIGN_DATE_AND_TIME_ASSIGNMENT ( #209, #115, ( #78 ) ) ;
#176 = PLANE ( 'NONE',  #117 ) ;
#177 = FACE_OUTER_BOUND ( 'NONE', #92, .T. ) ;
#178 = CC_DESIGN_PERSON_AND_ORGANIZATION_ASSIGNMENT ( #111, #131, ( #78 ) ) ;
#179 = PRODUCT_DEFINITION ( 'UNKNOWN', '', #141, #139 ) ;
#180 = LOCAL_TIME ( 11, 3, 46.00000000000000000, #86 ) ;
#181 = APPROVAL_ROLE ( '' ) ;
#182 = DIRECTION ( 'NONE',  ( 0.0000000000000000000, 0.0000000000000000000, 1.000000000000000000 ) ) ;
#183 = PERSON_AND_ORGANIZATION_ROLE ( 'creator' ) ;
#184 = AXIS2_PLACEMENT_3D ( 'NONE', #153, #157, #154 ) ;
#185 = ORIENTED_EDGE ( 'NONE', *, *, #40, .F. ) ;
#186 = DATE_AND_TIME ( #110, #200 ) ;
#187 = ORIENTED_EDGE ( 'NONE', *, *, #137, .F. ) ;
#188 = APPROVAL ( #203, 'UNSPECIFIED' ) ;
#189 = FACE_OUTER_BOUND ( 'NONE', #202, .T. ) ;
#190 = CIRCLE ( 'NONE', #123, 2.648999999999999577 ) ;
#191 = APPROVAL_STATUS ( 'not_yet_approved' ) ;
#192 = DATE_AND_TIME ( #227, #71 ) ;
#193 = DIRECTION ( 'NONE',  ( 0.0000000000000000000, 1.000000000000000000, 0.0000000000000000000 ) ) ;
#194 = DIRECTION ( 'NONE',  ( -3.491481338843133355E-15, 9.031770143711729009E-17, -1.000000000000000000 ) ) ;
#195 = FACE_OUTER_BOUND ( 'NONE', #42, .T. ) ;
#196 = CC_DESIGN_PERSON_AND_ORGANIZATION_ASSIGNMENT ( #28, #183, ( #179 ) ) ;
#197 = AXIS2_PLACEMENT_3D ( 'NONE', #198, #97, #58 ) ;
#198 = CARTESIAN_POINT ( 'NONE',  ( 0.0000000000000000000, 0.0000000000000000000, 0.0000000000000000000 ) ) ;
#199 = PERSON_AND_ORGANIZATION ( #9, #11 ) ;
#200 = LOCAL_TIME ( 11, 3, 46.00000000000000000, #70 ) ;
#201 = APPROVAL_DATE_TIME ( #65, #220 ) ;
#202 = EDGE_LOOP ( 'NONE', ( #103 ) ) ;
#203 = APPROVAL_STATUS ( 'not_yet_approved' ) ;
#204 = ORIENTED_EDGE ( 'NONE', *, *, #159, .T. ) ;
#205 = CC_DESIGN_APPROVAL ( #76, ( #78 ) ) ;
#206 = DIRECTION ( 'NONE',  ( -3.491481338843133355E-15, 9.031770143711729009E-17, -1.000000000000000000 ) ) ;
#207 = CARTESIAN_POINT ( 'NONE',  ( 1.396592535537257878E-15, 2.065778072313043580E-16, 0.4000000000000012990 ) ) ;
#208 = VERTEX_POINT ( 'NONE', #124 ) ;
#209 = DATE_AND_TIME ( #5, #67 ) ;
#210 = DIRECTION ( 'NONE',  ( 1.803156397418077537E-30, -1.000000000000000000, 5.164445180782593419E-16 ) ) ;
#211 = DIRECTION ( 'NONE',  ( -1.803156397418077537E-30, 1.000000000000000000, -5.164445180782593419E-16 ) ) ;
#212 = FACE_OUTER_BOUND ( 'NONE', #27, .T. ) ;
#213 = CC_DESIGN_SECURITY_CLASSIFICATION ( #78, ( #141 ) ) ;
#214 = FACE_OUTER_BOUND ( 'NONE', #83, .T. ) ;
#215 = CC_DESIGN_PERSON_AND_ORGANIZATION_ASSIGNMENT ( #165, #90, ( #141 ) ) ;
#216 = DIRECTION ( 'NONE',  ( 3.153425691349006731E-31, 1.000000000000000000, 9.031770143711729009E-17 ) ) ;
#217 = CC_DESIGN_APPROVAL ( #188, ( #141 ) ) ;
#218 = VERTEX_POINT ( 'NONE', #105 ) ;
#219 = CIRCLE ( 'NONE', #119, 1.999999999999991784 ) ;
#220 = APPROVAL ( #221, 'UNSPECIFIED' ) ;
#221 = APPROVAL_STATUS ( 'not_yet_approved' ) ;
#222 = DATE_AND_TIME ( #144, #229 ) ;
#223 = DIRECTION ( 'NONE',  ( -1.817600929017777430E-30, 1.000000000000000000, -5.116091791645456116E-16 ) ) ;
#224 = CARTESIAN_POINT ( 'NONE',  ( 2.793185071074506684E-13, 1.599999999999987876, 80.00000000000000000 ) ) ;
#225 = AXIS2_PLACEMENT_3D ( 'NONE', #152, #232, #54 ) ;
#226 = ADVANCED_FACE ( 'NONE', ( #118, #94 ), #37, .T. ) ;
#227 = CALENDAR_DATE ( 2021, 26, 11 ) ;
#228 = CARTESIAN_POINT ( 'NONE',  ( 2.779219145719134403E-13, -7.189289034394536528E-15, 79.60000000000000853 ) ) ;
#229 = LOCAL_TIME ( 11, 3, 46.00000000000000000, #69 ) ;
#230 = CYLINDRICAL_SURFACE ( 'NONE', #197, 2.648999999999995136 ) ;
#231 = APPROVAL_ROLE ( '' ) ;
#232 = DIRECTION ( 'NONE',  ( -3.491481338843133355E-15, -5.164445180782592433E-16, -1.000000000000000000 ) ) ;
#233 = FACE_OUTER_BOUND ( 'NONE', #47, .T. ) ;
#234 = ADVANCED_FACE ( 'NONE', ( #23, #177 ), #112, .T. ) ;
#235 = AXIS2_PLACEMENT_3D ( 'NONE', #100, #98, #211 ) ;
#236 = APPROVAL_DATE_TIME ( #186, #188 ) ;
#237 = MANIFOLD_SOLID_BREP ( 'Corps-Déplacer/Copier1[1]', #59 ) ;
#238 = APPROVAL_PERSON_ORGANIZATION ( #46, #188, #243 ) ;
#239 = CC_DESIGN_PERSON_AND_ORGANIZATION_ASSIGNMENT ( #121, #142, ( #85 ) ) ;
#240 = APPLICATION_PROTOCOL_DEFINITION ( 'international standard', 'config_control_design', 1994, #30 ) ;
#241 = CARTESIAN_POINT ( 'NONE',  ( 1.396592535537253145E-15, 2.648999999999998689, 0.3999999999999999667 ) ) ;
#242 = EDGE_LOOP ( 'NONE', ( #51 ) ) ;
#243 = APPROVAL_ROLE ( '' ) ;
ENDSEC;
END-ISO-10303-21;
