ISO-10303-21;
HEADER;
FILE_DESCRIPTION (( 'STEP AP203' ),
    '1' );
FILE_NAME ('321432.step',
    '2021-11-26T10:03:46',
    ( '' ),
    ( '' ),
    'SwSTEP 2.0',
    'SolidWorks 2019',
    '' );
FILE_SCHEMA (( 'CONFIG_CONTROL_DESIGN' ));
ENDSEC;

DATA;
#1 = DIRECTION ( 'NONE',  ( -3.491481338843133355E-15, -5.159324431091443275E-16, -1.000000000000000000 ) ) ;
#2 = DIRECTION ( 'NONE',  ( 0.0000000000000000000, 1.000000000000000000, 0.0000000000000000000 ) ) ;
#3 = CC_DESIGN_PERSON_AND_ORGANIZATION_ASSIGNMENT ( #188, #77, ( #146 ) ) ;
#4 = PERSON_AND_ORGANIZATION_ROLE ( 'classification_officer' ) ;
#5 = CARTESIAN_POINT ( 'NONE',  ( 2.779219145719134403E-13, -7.189289034394536528E-15, 79.60000000000000853 ) ) ;
#6 = CARTESIAN_POINT ( 'NONE',  ( 0.0000000000000000000, 0.0000000000000000000, 0.0000000000000000000 ) ) ;
#7 = CARTESIAN_POINT ( 'NONE',  ( 1.396592535537253145E-15, 2.643999999999998796, 0.3999999999999999667 ) ) ;
#8 = FACE_OUTER_BOUND ( 'NONE', #190, .T. ) ;
#9 = DATE_TIME_ROLE ( 'classification_date' ) ;
#10 = ADVANCED_BREP_SHAPE_REPRESENTATION ( '321432', ( #20, #234, #124 ), #97 ) ;
#11 = ADVANCED_FACE ( 'NONE', ( #191, #18 ), #226, .T. ) ;
#12 = CYLINDRICAL_SURFACE ( 'NONE', #152, 1.999999999999993561 ) ;
#13 = DATE_TIME_ROLE ( 'creation_date' ) ;
#14 = ORIENTED_EDGE ( 'NONE', *, *, #132, .T. ) ;
#15 = PERSON_AND_ORGANIZATION_ROLE ( 'design_owner' ) ;
#16 = ORIENTED_EDGE ( 'NONE', *, *, #83, .T. ) ;
#17 = CC_DESIGN_DATE_AND_TIME_ASSIGNMENT ( #166, #13, ( #114 ) ) ;
#18 = FACE_BOUND ( 'NONE', #198, .T. ) ;
#19 = CIRCLE ( 'NONE', #172, 2.643999999999999684 ) ;
#20 = MANIFOLD_SOLID_BREP ( 'Corps-Déplacer/Copier1[1]', #121 ) ;
#21 = CARTESIAN_POINT ( 'NONE',  ( 4.346810071936176218E-30, 6.423234502775687715E-31, 1.244975885615486948E-15 ) ) ;
#22 = APPROVAL_PERSON_ORGANIZATION ( #79, #136, #27 ) ;
#23 = DATE_AND_TIME ( #156, #192 ) ;
#24 = DIRECTION ( 'NONE',  ( -3.491481338843133355E-15, -5.159324431091443275E-16, -1.000000000000000000 ) ) ;
#25 = COORDINATED_UNIVERSAL_TIME_OFFSET ( 1, 0, .AHEAD. ) ;
#26 = DIRECTION ( 'NONE',  ( -3.491481338843133355E-15, 9.031770143711729009E-17, -1.000000000000000000 ) ) ;
#27 = APPROVAL_ROLE ( '' ) ;
#28 = AXIS2_PLACEMENT_3D ( 'NONE', #145, #147, #129 ) ;
#29 = APPROVAL_STATUS ( 'not_yet_approved' ) ;
#30 = DIRECTION ( 'NONE',  ( -3.491481338843133355E-15, 9.031770143711729009E-17, -1.000000000000000000 ) ) ;
#31 = AXIS2_PLACEMENT_3D ( 'NONE', #174, #26, #176 ) ;
#32 = FACE_BOUND ( 'NONE', #116, .T. ) ;
#33 = AXIS2_PLACEMENT_3D ( 'NONE', #235, #24, #131 ) ;
#34 = CARTESIAN_POINT ( 'NONE',  ( 2.793185071074506684E-13, -7.225416114969383207E-15, 80.00000000000000000 ) ) ;
#35 = DATE_AND_TIME ( #108, #157 ) ;
#36 = DIRECTION ( 'NONE',  ( 0.0000000000000000000, 1.000000000000000000, 0.0000000000000000000 ) ) ;
#37 = CARTESIAN_POINT ( 'NONE',  ( 4.885231259955590439E-14, 1.999999999999990452, 13.99185842870425134 ) ) ;
#38 = LOCAL_TIME ( 11, 3, 46.00000000000000000, #161 ) ;
#39 = APPROVAL_ROLE ( '' ) ;
#40 = EDGE_LOOP ( 'NONE', ( #242 ) ) ;
#41 = CIRCLE ( 'NONE', #67, 1.999999999999995337 ) ;
#42 = EDGE_CURVE ( 'NONE', #215, #215, #87, .T. ) ;
#43 = CARTESIAN_POINT ( 'NONE',  ( 0.0000000000000000000, 0.0000000000000000000, 0.0000000000000000000 ) ) ;
#44 = ORIENTED_EDGE ( 'NONE', *, *, #126, .F. ) ;
#45 = APPROVAL_PERSON_ORGANIZATION ( #56, #52, #39 ) ;
#46 = DIRECTION ( 'NONE',  ( 1.000000000000000000, 0.0000000000000000000, 0.0000000000000000000 ) ) ;
#47 = DIRECTION ( 'NONE',  ( -3.491481338843133355E-15, -5.159324431091443275E-16, -1.000000000000000000 ) ) ;
#48 = DIRECTION ( 'NONE',  ( -3.491481338843133355E-15, 9.031770143711729009E-17, -1.000000000000000000 ) ) ;
#49 = ADVANCED_FACE ( 'NONE', ( #209, #142 ), #216, .T. ) ;
#50 = CARTESIAN_POINT ( 'NONE',  ( 2.779219145719134403E-13, -7.189289034394536528E-15, 79.60000000000000853 ) ) ;
#51 = CIRCLE ( 'NONE', #96, 1.599999999999994982 ) ;
#52 = APPROVAL ( #154, 'UNSPECIFIED' ) ;
#53 = CARTESIAN_POINT ( 'NONE',  ( 2.793185071074506684E-13, -7.225416114969383207E-15, 80.00000000000000000 ) ) ;
#54 = DIRECTION ( 'NONE',  ( 1.801368497219324009E-30, -1.000000000000000000, 5.159324431091443275E-16 ) ) ;
#55 = EDGE_CURVE ( 'NONE', #155, #155, #140, .T. ) ;
#56 = PERSON_AND_ORGANIZATION ( #61, #62 ) ;
#57 = AXIS2_PLACEMENT_3D ( 'NONE', #21, #186, #54 ) ;
#58 = CC_DESIGN_APPROVAL ( #52, ( #73 ) ) ;
#59 = DIRECTION ( 'NONE',  ( -1.801368497219324009E-30, 1.000000000000000000, -5.159324431091443275E-16 ) ) ;
#60 = DIRECTION ( 'NONE',  ( 0.0000000000000000000, 1.000000000000000000, 0.0000000000000000000 ) ) ;
#61 = PERSON ( 'UNSPECIFIED', 'UNSPECIFIED', 'UNSPECIFIED', ('UNSPECIFIED'), ('UNSPECIFIED'), ('UNSPECIFIED') ) ;
#62 = ORGANIZATION ( 'UNSPECIFIED', 'UNSPECIFIED', '' ) ;
#63 = EDGE_LOOP ( 'NONE', ( #137 ) ) ;
#64 = PERSON_AND_ORGANIZATION ( #61, #62 ) ;
#65 = ORIENTED_EDGE ( 'NONE', *, *, #219, .T. ) ;
#66 = EDGE_LOOP ( 'NONE', ( #14 ) ) ;
#67 = AXIS2_PLACEMENT_3D ( 'NONE', #5, #150, #60 ) ;
#68 = DATE_AND_TIME ( #201, #38 ) ;
#69 = APPLICATION_CONTEXT ( 'configuration controlled 3d designs of mechanical parts and assemblies' ) ;
#70 = AXIS2_PLACEMENT_3D ( 'NONE', #88, #160, #229 ) ;
#71 = DIRECTION ( 'NONE',  ( -1.821038147113499152E-30, 1.000000000000000000, -5.125766700479883285E-16 ) ) ;
#72 = APPLICATION_CONTEXT ( 'configuration controlled 3d designs of mechanical parts and assemblies' ) ;
#73 = SECURITY_CLASSIFICATION ( '', '', #95 ) ;
#74 = EDGE_LOOP ( 'NONE', ( #16 ) ) ;
#75 = PERSON_AND_ORGANIZATION ( #61, #62 ) ;
#76 = PLANE ( 'NONE',  #33 ) ;
#77 = PERSON_AND_ORGANIZATION_ROLE ( 'creator' ) ;
#78 = AXIS2_PLACEMENT_3D ( 'NONE', #170, #1, #93 ) ;
#79 = PERSON_AND_ORGANIZATION ( #61, #62 ) ;
#80 = CC_DESIGN_DATE_AND_TIME_ASSIGNMENT ( #35, #9, ( #73 ) ) ;
#81 = PERSON_AND_ORGANIZATION ( #61, #62 ) ;
#82 = AXIS2_PLACEMENT_3D ( 'NONE', #6, #110, #59 ) ;
#83 = EDGE_CURVE ( 'NONE', #177, #177, #211, .T. ) ;
#84 = CALENDAR_DATE ( 2021, 26, 11 ) ;
#85 = ORIENTED_EDGE ( 'NONE', *, *, #219, .F. ) ;
#86 = EDGE_LOOP ( 'NONE', ( #65 ) ) ;
#87 = CIRCLE ( 'NONE', #206, 1.999999999999991784 ) ;
#88 = CARTESIAN_POINT ( 'NONE',  ( 4.495777214083044221E-14, 6.643361646907257842E-15, 12.87641770862986768 ) ) ;
#89 = ADVANCED_FACE ( 'NONE', ( #141 ), #144, .T. ) ;
#90 = EDGE_LOOP ( 'NONE', ( #143 ) ) ;
#91 = CARTESIAN_POINT ( 'NONE',  ( 1.396592535537257878E-15, 2.063729772436584114E-16, 0.4000000000000012990 ) ) ;
#92 = ADVANCED_FACE ( 'NONE', ( #230, #225 ), #210, .T. ) ;
#93 = DIRECTION ( 'NONE',  ( -1.801368497219324009E-30, 1.000000000000000000, -5.159324431091443275E-16 ) ) ;
#94 = CARTESIAN_POINT ( 'NONE',  ( 4.495777214083043590E-14, -1.162968450187642326E-15, 12.87641770862986590 ) ) ;
#95 = SECURITY_CLASSIFICATION_LEVEL ( 'unclassified' ) ;
#96 = AXIS2_PLACEMENT_3D ( 'NONE', #34, #30, #189 ) ;
#97 =( GEOMETRIC_REPRESENTATION_CONTEXT ( 3 ) GLOBAL_UNCERTAINTY_ASSIGNED_CONTEXT ( ( #138 ) ) GLOBAL_UNIT_ASSIGNED_CONTEXT ( ( #153, #212, #149 ) ) REPRESENTATION_CONTEXT ( 'NONE', 'WORKASPACE' ) );
#98 = DIRECTION ( 'NONE',  ( -3.491481338843133355E-15, 9.031770143711729009E-17, -1.000000000000000000 ) ) ;
#99 = VERTEX_POINT ( 'NONE', #217 ) ;
#100 = ADVANCED_FACE ( 'NONE', ( #173 ), #151, .T. ) ;
#101 = CC_DESIGN_APPROVAL ( #241, ( #114 ) ) ;
#102 = PERSON_AND_ORGANIZATION ( #61, #62 ) ;
#103 = CC_DESIGN_PERSON_AND_ORGANIZATION_ASSIGNMENT ( #75, #4, ( #73 ) ) ;
#104 = APPROVAL_DATE_TIME ( #117, #241 ) ;
#105 = DESIGN_CONTEXT ( 'detailed design', #69, 'design' ) ;
#106 = ADVANCED_FACE ( 'NONE', ( #32, #213 ), #118, .T. ) ;
#107 = ORIENTED_EDGE ( 'NONE', *, *, #55, .F. ) ;
#108 = CALENDAR_DATE ( 2021, 26, 11 ) ;
#109 = AXIS2_PLACEMENT_3D ( 'NONE', #91, #47, #71 ) ;
#110 = DIRECTION ( 'NONE',  ( -3.491481338843133355E-15, -5.159324431091443275E-16, -1.000000000000000000 ) ) ;
#111 = EDGE_CURVE ( 'NONE', #232, #232, #51, .T. ) ;
#112 = CARTESIAN_POINT ( 'NONE',  ( 2.793185071074506684E-13, 1.599999999999987876, 80.00000000000000000 ) ) ;
#113 = LOCAL_TIME ( 11, 3, 46.00000000000000000, #119 ) ;
#114 = PRODUCT_DEFINITION ( 'UNKNOWN', '', #146, #105 ) ;
#115 = CARTESIAN_POINT ( 'NONE',  ( 2.779219145719134403E-13, 1.999999999999988010, 79.60000000000000853 ) ) ;
#116 = EDGE_LOOP ( 'NONE', ( #168 ) ) ;
#117 = DATE_AND_TIME ( #220, #113 ) ;
#118 = CONICAL_SURFACE ( 'NONE', #221, 2.643999999999999684, 0.5235987755982928205 ) ;
#119 = COORDINATED_UNIVERSAL_TIME_OFFSET ( 1, 0, .AHEAD. ) ;
#120 = CC_DESIGN_PERSON_AND_ORGANIZATION_ASSIGNMENT ( #130, #214, ( #146 ) ) ;
#121 = CLOSED_SHELL ( 'NONE', ( #89, #49, #197, #106, #184 ) ) ;
#122 = EDGE_LOOP ( 'NONE', ( #44 ) ) ;
#123 = DIRECTION ( 'NONE',  ( -3.153425691349006731E-31, -1.000000000000000000, -9.031770143711729009E-17 ) ) ;
#124 = AXIS2_PLACEMENT_3D ( 'NONE', #43, #224, #46 ) ;
#125 = DIRECTION ( 'NONE',  ( 3.153425691349006731E-31, 1.000000000000000000, 9.031770143711729009E-17 ) ) ;
#126 = EDGE_CURVE ( 'NONE', #236, #236, #179, .T. ) ;
#127 = CARTESIAN_POINT ( 'NONE',  ( 4.495777214083043590E-14, 2.643999999999998352, 12.87641770862986590 ) ) ;
#128 = FACE_OUTER_BOUND ( 'NONE', #165, .T. ) ;
#129 = DIRECTION ( 'NONE',  ( 1.801368497219324360E-30, -1.000000000000000000, 5.159324431091443275E-16 ) ) ;
#130 = PERSON_AND_ORGANIZATION ( #61, #62 ) ;
#131 = DIRECTION ( 'NONE',  ( -1.801368497219324360E-30, 1.000000000000000000, -5.159324431091443275E-16 ) ) ;
#132 = EDGE_CURVE ( 'NONE', #99, #99, #19, .T. ) ;
#133 = EDGE_LOOP ( 'NONE', ( #135 ) ) ;
#134 = APPLICATION_PROTOCOL_DEFINITION ( 'international standard', 'config_control_design', 1994, #69 ) ;
#135 = ORIENTED_EDGE ( 'NONE', *, *, #111, .F. ) ;
#136 = APPROVAL ( #243, 'UNSPECIFIED' ) ;
#137 = ORIENTED_EDGE ( 'NONE', *, *, #83, .F. ) ;
#138 = UNCERTAINTY_MEASURE_WITH_UNIT (LENGTH_MEASURE( 1.000000000000000082E-05 ), #153, 'distance_accuracy_value', 'NONE');
#139 = CC_DESIGN_PERSON_AND_ORGANIZATION_ASSIGNMENT ( #102, #199, ( #114 ) ) ;
#140 = CIRCLE ( 'NONE', #78, 2.413059892324148858 ) ;
#141 = FACE_OUTER_BOUND ( 'NONE', #133, .T. ) ;
#142 = FACE_OUTER_BOUND ( 'NONE', #185, .T. ) ;
#143 = ORIENTED_EDGE ( 'NONE', *, *, #126, .T. ) ;
#144 = PLANE ( 'NONE',  #200 ) ;
#145 = CARTESIAN_POINT ( 'NONE',  ( 4.495777214083042959E-14, 6.643361646907255475E-15, 12.87641770862986412 ) ) ;
#146 = PRODUCT_DEFINITION_FORMATION_WITH_SPECIFIED_SOURCE ( 'ANY', '', #180, .NOT_KNOWN. ) ;
#147 = DIRECTION ( 'NONE',  ( 3.491481338843133355E-15, 5.159324431091443275E-16, 1.000000000000000000 ) ) ;
#148 = SHAPE_DEFINITION_REPRESENTATION ( #182, #10 ) ;
#149 =( NAMED_UNIT ( * ) SI_UNIT ( $, .STERADIAN. ) SOLID_ANGLE_UNIT ( ) );
#150 = DIRECTION ( 'NONE',  ( -3.491481338843133355E-15, 9.031770143711729009E-17, -1.000000000000000000 ) ) ;
#151 = PLANE ( 'NONE',  #28 ) ;
#152 = AXIS2_PLACEMENT_3D ( 'NONE', #158, #240, #125 ) ;
#153 =( LENGTH_UNIT ( ) NAMED_UNIT ( * ) SI_UNIT ( .MILLI., .METRE. ) );
#154 = APPROVAL_STATUS ( 'not_yet_approved' ) ;
#155 = VERTEX_POINT ( 'NONE', #239 ) ;
#156 = CALENDAR_DATE ( 2021, 26, 11 ) ;
#157 = LOCAL_TIME ( 11, 3, 46.00000000000000000, #195 ) ;
#158 = CARTESIAN_POINT ( 'NONE',  ( 0.0000000000000000000, 0.0000000000000000000, 0.0000000000000000000 ) ) ;
#159 = CC_DESIGN_SECURITY_CLASSIFICATION ( #73, ( #146 ) ) ;
#160 = DIRECTION ( 'NONE',  ( -3.491481338843133355E-15, -5.159324431091443275E-16, -1.000000000000000000 ) ) ;
#161 = COORDINATED_UNIVERSAL_TIME_OFFSET ( 1, 0, .AHEAD. ) ;
#162 = APPROVAL_DATE_TIME ( #68, #136 ) ;
#163 = LOCAL_TIME ( 11, 3, 46.00000000000000000, #181 ) ;
#164 = APPROVAL_ROLE ( '' ) ;
#165 = EDGE_LOOP ( 'NONE', ( #171 ) ) ;
#166 = DATE_AND_TIME ( #84, #163 ) ;
#167 = CC_DESIGN_PERSON_AND_ORGANIZATION_ASSIGNMENT ( #64, #15, ( #180 ) ) ;
#168 = ORIENTED_EDGE ( 'NONE', *, *, #42, .T. ) ;
#169 = DIRECTION ( 'NONE',  ( -3.491481338843133355E-15, 9.031770143711729009E-17, -1.000000000000000000 ) ) ;
#170 = CARTESIAN_POINT ( 'NONE',  ( 4.346810071936176218E-30, 6.423234502775687715E-31, 1.244975885615486948E-15 ) ) ;
#171 = ORIENTED_EDGE ( 'NONE', *, *, #42, .F. ) ;
#172 = AXIS2_PLACEMENT_3D ( 'NONE', #94, #178, #36 ) ;
#173 = FACE_OUTER_BOUND ( 'NONE', #122, .T. ) ;
#174 = CARTESIAN_POINT ( 'NONE',  ( 4.495777214083042959E-14, 2.643999999999998352, 12.87641770862986412 ) ) ;
#175 = APPROVAL_DATE_TIME ( #23, #52 ) ;
#176 = DIRECTION ( 'NONE',  ( 3.153425691349006731E-31, 1.000000000000000000, 9.031770143711729009E-17 ) ) ;
#177 = VERTEX_POINT ( 'NONE', #7 ) ;
#178 = DIRECTION ( 'NONE',  ( -3.491481338843133355E-15, 9.031770143711729009E-17, -1.000000000000000000 ) ) ;
#179 = CIRCLE ( 'NONE', #70, 2.643999999999991690 ) ;
#180 = PRODUCT ( '321432', '321432', '', ( #223 ) ) ;
#181 = COORDINATED_UNIVERSAL_TIME_OFFSET ( 1, 0, .AHEAD. ) ;
#182 = PRODUCT_DEFINITION_SHAPE ( 'NONE', 'NONE',  #114 ) ;
#183 = CC_DESIGN_APPROVAL ( #136, ( #146 ) ) ;
#184 = ADVANCED_FACE ( 'NONE', ( #237 ), #194, .T. ) ;
#185 = EDGE_LOOP ( 'NONE', ( #85 ) ) ;
#186 = DIRECTION ( 'NONE',  ( 3.491481338843133355E-15, 5.159324431091443275E-16, 1.000000000000000000 ) ) ;
#187 = DIRECTION ( 'NONE',  ( 0.0000000000000000000, 1.000000000000000000, 0.0000000000000000000 ) ) ;
#188 = PERSON_AND_ORGANIZATION ( #61, #62 ) ;
#189 = DIRECTION ( 'NONE',  ( 0.0000000000000000000, 1.000000000000000000, 0.0000000000000000000 ) ) ;
#190 = EDGE_LOOP ( 'NONE', ( #202 ) ) ;
#191 = FACE_OUTER_BOUND ( 'NONE', #74, .T. ) ;
#192 = LOCAL_TIME ( 11, 3, 46.00000000000000000, #25 ) ;
#193 = FACE_OUTER_BOUND ( 'NONE', #86, .T. ) ;
#194 = PLANE ( 'NONE',  #31 ) ;
#195 = COORDINATED_UNIVERSAL_TIME_OFFSET ( 1, 0, .AHEAD. ) ;
#196 = CARTESIAN_POINT ( 'NONE',  ( 4.495777214083043590E-14, -1.162968450187642326E-15, 12.87641770862986590 ) ) ;
#197 = ADVANCED_FACE ( 'NONE', ( #193, #128 ), #12, .T. ) ;
#198 = EDGE_LOOP ( 'NONE', ( #107 ) ) ;
#199 = PERSON_AND_ORGANIZATION_ROLE ( 'creator' ) ;
#200 = AXIS2_PLACEMENT_3D ( 'NONE', #53, #208, #123 ) ;
#201 = CALENDAR_DATE ( 2021, 26, 11 ) ;
#202 = ORIENTED_EDGE ( 'NONE', *, *, #55, .T. ) ;
#203 = APPLICATION_PROTOCOL_DEFINITION ( 'international standard', 'config_control_design', 1994, #72 ) ;
#204 = ORIENTED_EDGE ( 'NONE', *, *, #132, .F. ) ;
#205 = PRODUCT_RELATED_PRODUCT_CATEGORY ( 'detail', '', ( #180 ) ) ;
#206 = AXIS2_PLACEMENT_3D ( 'NONE', #207, #48, #187 ) ;
#207 = CARTESIAN_POINT ( 'NONE',  ( 4.885231259955590439E-14, -1.263712492114123682E-15, 13.99185842870425134 ) ) ;
#208 = DIRECTION ( 'NONE',  ( 3.491481338843133355E-15, -9.031770143711729009E-17, 1.000000000000000000 ) ) ;
#209 = FACE_BOUND ( 'NONE', #40, .T. ) ;
#210 = CYLINDRICAL_SURFACE ( 'NONE', #82, 2.643999999999995243 ) ;
#211 = CIRCLE ( 'NONE', #109, 2.643999999999998796 ) ;
#212 =( NAMED_UNIT ( * ) PLANE_ANGLE_UNIT ( ) SI_UNIT ( $, .RADIAN. ) );
#213 = FACE_OUTER_BOUND ( 'NONE', #222, .T. ) ;
#214 = PERSON_AND_ORGANIZATION_ROLE ( 'design_supplier' ) ;
#215 = VERTEX_POINT ( 'NONE', #37 ) ;
#216 = CONICAL_SURFACE ( 'NONE', #233, 1.999999999999995337, 0.7853981633974516097 ) ;
#217 = CARTESIAN_POINT ( 'NONE',  ( 4.495777214083043590E-14, 2.643999999999998352, 12.87641770862986590 ) ) ;
#218 = VERTEX_POINT ( 'NONE', #115 ) ;
#219 = EDGE_CURVE ( 'NONE', #218, #218, #41, .T. ) ;
#220 = CALENDAR_DATE ( 2021, 26, 11 ) ;
#221 = AXIS2_PLACEMENT_3D ( 'NONE', #196, #98, #231 ) ;
#222 = EDGE_LOOP ( 'NONE', ( #204 ) ) ;
#223 = MECHANICAL_CONTEXT ( 'NONE', #72, 'mechanical' ) ;
#224 = DIRECTION ( 'NONE',  ( 0.0000000000000000000, 0.0000000000000000000, 1.000000000000000000 ) ) ;
#225 = FACE_OUTER_BOUND ( 'NONE', #63, .T. ) ;
#226 = CONICAL_SURFACE ( 'NONE', #57, 2.413059892324148858, 0.5235987755982978165 ) ;
#227 = APPROVAL_PERSON_ORGANIZATION ( #81, #241, #164 ) ;
#228 = ADVANCED_FACE ( 'NONE', ( #8 ), #76, .T. ) ;
#229 = DIRECTION ( 'NONE',  ( -2.330928828305285332E-30, 1.000000000000000000, -6.560981376614268669E-16 ) ) ;
#230 = FACE_OUTER_BOUND ( 'NONE', #90, .T. ) ;
#231 = DIRECTION ( 'NONE',  ( 0.0000000000000000000, 1.000000000000000000, 0.0000000000000000000 ) ) ;
#232 = VERTEX_POINT ( 'NONE', #112 ) ;
#233 = AXIS2_PLACEMENT_3D ( 'NONE', #50, #169, #2 ) ;
#234 = MANIFOLD_SOLID_BREP ( 'Corps-Déplacer/Copier1[2]', #238 ) ;
#235 = CARTESIAN_POINT ( 'NONE',  ( -2.173405035968088109E-30, 2.413059892324148858, -6.224879428077434739E-16 ) ) ;
#236 = VERTEX_POINT ( 'NONE', #127 ) ;
#237 = FACE_OUTER_BOUND ( 'NONE', #66, .T. ) ;
#238 = CLOSED_SHELL ( 'NONE', ( #100, #92, #11, #228 ) ) ;
#239 = CARTESIAN_POINT ( 'NONE',  ( 0.0000000000000000000, 2.413059892324148858, 0.0000000000000000000 ) ) ;
#240 = DIRECTION ( 'NONE',  ( -3.491481338843133355E-15, 9.031770143711729009E-17, -1.000000000000000000 ) ) ;
#241 = APPROVAL ( #29, 'UNSPECIFIED' ) ;
#242 = ORIENTED_EDGE ( 'NONE', *, *, #111, .T. ) ;
#243 = APPROVAL_STATUS ( 'not_yet_approved' ) ;
ENDSEC;
END-ISO-10303-21;
