ISO-10303-21;
HEADER;
FILE_DESCRIPTION (( 'STEP AP203' ),
    '1' );
FILE_NAME ('321431.step',
    '2021-11-26T10:03:45',
    ( '' ),
    ( '' ),
    'SwSTEP 2.0',
    'SolidWorks 2019',
    '' );
FILE_SCHEMA (( 'CONFIG_CONTROL_DESIGN' ));
ENDSEC;

DATA;
#1 = EDGE_LOOP ( 'NONE', ( #23 ) ) ;
#2 = FACE_OUTER_BOUND ( 'NONE', #18, .T. ) ;
#3 = DIRECTION ( 'NONE',  ( -3.153425691349006731E-31, -1.000000000000000000, -9.031770143711729009E-17 ) ) ;
#4 = AXIS2_PLACEMENT_3D ( 'NONE', #205, #78, #209 ) ;
#5 = DIRECTION ( 'NONE',  ( -3.491481338843133355E-15, -5.154210564865541505E-16, -1.000000000000000000 ) ) ;
#6 = DIRECTION ( 'NONE',  ( 3.491481338843133355E-15, 5.154210564865541505E-16, 1.000000000000000000 ) ) ;
#7 = CARTESIAN_POINT ( 'NONE',  ( 2.793185071074506684E-13, -7.225416114969383207E-15, 80.00000000000000000 ) ) ;
#8 = EDGE_CURVE ( 'NONE', #28, #28, #123, .T. ) ;
#9 = APPROVAL_ROLE ( '' ) ;
#10 = SECURITY_CLASSIFICATION ( '', '', #105 ) ;
#11 =( LENGTH_UNIT ( ) NAMED_UNIT ( * ) SI_UNIT ( .MILLI., .METRE. ) );
#12 = COORDINATED_UNIVERSAL_TIME_OFFSET ( 1, 0, .AHEAD. ) ;
#13 = COORDINATED_UNIVERSAL_TIME_OFFSET ( 1, 0, .AHEAD. ) ;
#14 = CIRCLE ( 'NONE', #44, 2.638999999999991797 ) ;
#15 = CC_DESIGN_APPROVAL ( #207, ( #54 ) ) ;
#16 = CALENDAR_DATE ( 2021, 26, 11 ) ;
#17 = DESIGN_CONTEXT ( 'detailed design', #210, 'design' ) ;
#18 = EDGE_LOOP ( 'NONE', ( #240 ) ) ;
#19 = LOCAL_TIME ( 11, 3, 45.00000000000000000, #12 ) ;
#20 = APPLICATION_CONTEXT ( 'configuration controlled 3d designs of mechanical parts and assemblies' ) ;
#21 = CARTESIAN_POINT ( 'NONE',  ( 4.498800925619321726E-14, -1.163750624426201819E-15, 12.88507796266771166 ) ) ;
#22 = CC_DESIGN_DATE_AND_TIME_ASSIGNMENT ( #55, #85, ( #10 ) ) ;
#23 = ORIENTED_EDGE ( 'NONE', *, *, #138, .F. ) ;
#24 = CARTESIAN_POINT ( 'NONE',  ( 1.396592535537257878E-15, 2.061684225946223554E-16, 0.4000000000000012990 ) ) ;
#25 = FACE_OUTER_BOUND ( 'NONE', #108, .T. ) ;
#26 = ADVANCED_FACE ( 'NONE', ( #201 ), #34, .T. ) ;
#27 = DIRECTION ( 'NONE',  ( -3.491481338843133355E-15, 9.031770143711729009E-17, -1.000000000000000000 ) ) ;
#28 = VERTEX_POINT ( 'NONE', #166 ) ;
#29 = CARTESIAN_POINT ( 'NONE',  ( 4.885231259955590439E-14, -1.263712492114123682E-15, 13.99185842870425134 ) ) ;
#30 = VERTEX_POINT ( 'NONE', #80 ) ;
#31 = CALENDAR_DATE ( 2021, 26, 11 ) ;
#32 = CIRCLE ( 'NONE', #48, 1.999999999999991784 ) ;
#33 = EDGE_LOOP ( 'NONE', ( #158 ) ) ;
#34 = PLANE ( 'NONE',  #164 ) ;
#35 = AXIS2_PLACEMENT_3D ( 'NONE', #77, #5, #115 ) ;
#36 = FACE_BOUND ( 'NONE', #106, .T. ) ;
#37 = FACE_OUTER_BOUND ( 'NONE', #241, .T. ) ;
#38 = CYLINDRICAL_SURFACE ( 'NONE', #222, 1.999999999999993561 ) ;
#39 = EDGE_CURVE ( 'NONE', #61, #61, #198, .T. ) ;
#40 = AXIS2_PLACEMENT_3D ( 'NONE', #24, #226, #189 ) ;
#41 = PLANE ( 'NONE',  #239 ) ;
#42 = CYLINDRICAL_SURFACE ( 'NONE', #35, 2.638999999999994905 ) ;
#43 = VERTEX_POINT ( 'NONE', #118 ) ;
#44 = AXIS2_PLACEMENT_3D ( 'NONE', #167, #225, #185 ) ;
#45 = DATE_AND_TIME ( #16, #19 ) ;
#46 = PRODUCT_RELATED_PRODUCT_CATEGORY ( 'detail', '', ( #214 ) ) ;
#47 = APPLICATION_PROTOCOL_DEFINITION ( 'international standard', 'config_control_design', 1994, #20 ) ;
#48 = AXIS2_PLACEMENT_3D ( 'NONE', #29, #148, #135 ) ;
#49 = CC_DESIGN_APPROVAL ( #190, ( #194 ) ) ;
#50 = ORIENTED_EDGE ( 'NONE', *, *, #171, .F. ) ;
#51 = PERSON ( 'UNSPECIFIED', 'UNSPECIFIED', 'UNSPECIFIED', ('UNSPECIFIED'), ('UNSPECIFIED'), ('UNSPECIFIED') ) ;
#52 = PERSON_AND_ORGANIZATION ( #51, #76 ) ;
#53 = ORIENTED_EDGE ( 'NONE', *, *, #171, .T. ) ;
#54 = PRODUCT_DEFINITION ( 'UNKNOWN', '', #194, #17 ) ;
#55 = DATE_AND_TIME ( #31, #234 ) ;
#56 = EDGE_CURVE ( 'NONE', #192, #192, #191, .T. ) ;
#57 = DIRECTION ( 'NONE',  ( -3.491481338843133355E-15, 9.031770143711729009E-17, -1.000000000000000000 ) ) ;
#58 = DIRECTION ( 'NONE',  ( -3.491481338843133355E-15, 9.031770143711729009E-17, -1.000000000000000000 ) ) ;
#59 = CARTESIAN_POINT ( 'NONE',  ( 4.498800925619320464E-14, 2.638999999999998014, 12.88507796266770811 ) ) ;
#60 = CC_DESIGN_PERSON_AND_ORGANIZATION_ASSIGNMENT ( #52, #242, ( #194 ) ) ;
#61 = VERTEX_POINT ( 'NONE', #133 ) ;
#62 = VERTEX_POINT ( 'NONE', #172 ) ;
#63 = ADVANCED_BREP_SHAPE_REPRESENTATION ( '321431', ( #237, #99, #176 ), #203 ) ;
#64 = PERSON_AND_ORGANIZATION ( #51, #76 ) ;
#65 = APPROVAL_STATUS ( 'not_yet_approved' ) ;
#66 = AXIS2_PLACEMENT_3D ( 'NONE', #142, #92, #162 ) ;
#67 = COORDINATED_UNIVERSAL_TIME_OFFSET ( 1, 0, .AHEAD. ) ;
#68 = AXIS2_PLACEMENT_3D ( 'NONE', #79, #6, #146 ) ;
#69 = EDGE_LOOP ( 'NONE', ( #161 ) ) ;
#70 = ORIENTED_EDGE ( 'NONE', *, *, #39, .F. ) ;
#71 = PERSON_AND_ORGANIZATION ( #51, #76 ) ;
#72 = ORIENTED_EDGE ( 'NONE', *, *, #178, .F. ) ;
#73 = APPROVAL ( #141, 'UNSPECIFIED' ) ;
#74 = PLANE ( 'NONE',  #169 ) ;
#75 = FACE_OUTER_BOUND ( 'NONE', #69, .T. ) ;
#76 = ORGANIZATION ( 'UNSPECIFIED', 'UNSPECIFIED', '' ) ;
#77 = CARTESIAN_POINT ( 'NONE',  ( 0.0000000000000000000, 0.0000000000000000000, 0.0000000000000000000 ) ) ;
#78 = DIRECTION ( 'NONE',  ( -3.491481338843133355E-15, -5.154210564865541505E-16, -1.000000000000000000 ) ) ;
#79 = CARTESIAN_POINT ( 'NONE',  ( 4.498800925619320464E-14, 6.641240496429806964E-15, 12.88507796266770811 ) ) ;
#80 = CARTESIAN_POINT ( 'NONE',  ( 4.885231259955590439E-14, 1.999999999999990452, 13.99185842870425134 ) ) ;
#81 = CC_DESIGN_PERSON_AND_ORGANIZATION_ASSIGNMENT ( #64, #231, ( #54 ) ) ;
#82 = LOCAL_TIME ( 11, 3, 45.00000000000000000, #236 ) ;
#83 =( NAMED_UNIT ( * ) SI_UNIT ( $, .STERADIAN. ) SOLID_ANGLE_UNIT ( ) );
#84 = PERSON_AND_ORGANIZATION ( #51, #76 ) ;
#85 = DATE_TIME_ROLE ( 'classification_date' ) ;
#86 = DIRECTION ( 'NONE',  ( -3.491481338843133355E-15, -5.154210564865541505E-16, -1.000000000000000000 ) ) ;
#87 = EDGE_LOOP ( 'NONE', ( #197 ) ) ;
#88 = APPROVAL_DATE_TIME ( #160, #73 ) ;
#89 = PERSON_AND_ORGANIZATION ( #51, #76 ) ;
#90 = ORIENTED_EDGE ( 'NONE', *, *, #56, .T. ) ;
#91 = APPROVAL_PERSON_ORGANIZATION ( #150, #207, #9 ) ;
#92 = DIRECTION ( 'NONE',  ( -3.491481338843133355E-15, 9.031770143711729009E-17, -1.000000000000000000 ) ) ;
#93 = DIRECTION ( 'NONE',  ( 3.491481338843133355E-15, -9.031770143711729009E-17, 1.000000000000000000 ) ) ;
#94 = CARTESIAN_POINT ( 'NONE',  ( 4.498800925619321726E-14, -1.163750624426201819E-15, 12.88507796266771166 ) ) ;
#95 = CONICAL_SURFACE ( 'NONE', #104, 1.999999999999995337, 0.7853981633974516097 ) ;
#96 = APPROVAL_PERSON_ORGANIZATION ( #121, #190, #193 ) ;
#97 = CARTESIAN_POINT ( 'NONE',  ( 2.779219145719134403E-13, -7.189289034394536528E-15, 79.60000000000000853 ) ) ;
#98 = FACE_BOUND ( 'NONE', #33, .T. ) ;
#99 = MANIFOLD_SOLID_BREP ( 'Corps-Déplacer/Copier1[2]', #119 ) ;
#100 = PERSON_AND_ORGANIZATION_ROLE ( 'design_owner' ) ;
#101 = ADVANCED_FACE ( 'NONE', ( #130, #37 ), #42, .T. ) ;
#102 = DIRECTION ( 'NONE',  ( 0.0000000000000000000, 0.0000000000000000000, 1.000000000000000000 ) ) ;
#103 = ORIENTED_EDGE ( 'NONE', *, *, #154, .T. ) ;
#104 = AXIS2_PLACEMENT_3D ( 'NONE', #97, #57, #204 ) ;
#105 = SECURITY_CLASSIFICATION_LEVEL ( 'unclassified' ) ;
#106 = EDGE_LOOP ( 'NONE', ( #177 ) ) ;
#107 = DIRECTION ( 'NONE',  ( 0.0000000000000000000, 1.000000000000000000, 0.0000000000000000000 ) ) ;
#108 = EDGE_LOOP ( 'NONE', ( #72 ) ) ;
#109 = LOCAL_TIME ( 11, 3, 45.00000000000000000, #67 ) ;
#110 = CARTESIAN_POINT ( 'NONE',  ( 4.333503646098426678E-30, 6.397224589779589631E-31, 1.241164773784610449E-15 ) ) ;
#111 = FACE_OUTER_BOUND ( 'NONE', #87, .T. ) ;
#112 = CC_DESIGN_PERSON_AND_ORGANIZATION_ASSIGNMENT ( #84, #100, ( #214 ) ) ;
#113 = DIRECTION ( 'NONE',  ( 0.0000000000000000000, 1.000000000000000000, 0.0000000000000000000 ) ) ;
#114 = AXIS2_PLACEMENT_3D ( 'NONE', #7, #208, #113 ) ;
#115 = DIRECTION ( 'NONE',  ( -1.799583000369616362E-30, 1.000000000000000000, -5.154210564865542491E-16 ) ) ;
#116 = ADVANCED_FACE ( 'NONE', ( #131 ), #227, .T. ) ;
#117 = APPROVAL_DATE_TIME ( #235, #190 ) ;
#118 = CARTESIAN_POINT ( 'NONE',  ( -6.842277657836020854E-46, 2.408059892324148965, 0.0000000000000000000 ) ) ;
#119 = CLOSED_SHELL ( 'NONE', ( #116, #101, #220, #26 ) ) ;
#120 = CALENDAR_DATE ( 2021, 26, 11 ) ;
#121 = PERSON_AND_ORGANIZATION ( #51, #76 ) ;
#122 =( NAMED_UNIT ( * ) PLANE_ANGLE_UNIT ( ) SI_UNIT ( $, .RADIAN. ) );
#123 = CIRCLE ( 'NONE', #159, 2.638999999999999346 ) ;
#124 = CC_DESIGN_SECURITY_CLASSIFICATION ( #10, ( #194 ) ) ;
#125 = EDGE_LOOP ( 'NONE', ( #103 ) ) ;
#126 = PERSON_AND_ORGANIZATION_ROLE ( 'classification_officer' ) ;
#127 = UNCERTAINTY_MEASURE_WITH_UNIT (LENGTH_MEASURE( 1.000000000000000082E-05 ), #11, 'distance_accuracy_value', 'NONE');
#128 = EDGE_LOOP ( 'NONE', ( #50 ) ) ;
#129 = EDGE_LOOP ( 'NONE', ( #143 ) ) ;
#130 = FACE_OUTER_BOUND ( 'NONE', #129, .T. ) ;
#131 = FACE_OUTER_BOUND ( 'NONE', #1, .T. ) ;
#132 = DIRECTION ( 'NONE',  ( 3.153425691349006731E-31, 1.000000000000000000, 9.031770143711729009E-17 ) ) ;
#133 = CARTESIAN_POINT ( 'NONE',  ( 2.779219145719134403E-13, 1.999999999999988010, 79.60000000000000853 ) ) ;
#134 = AXIS2_PLACEMENT_3D ( 'NONE', #94, #144, #221 ) ;
#135 = DIRECTION ( 'NONE',  ( 0.0000000000000000000, 1.000000000000000000, 0.0000000000000000000 ) ) ;
#136 = CARTESIAN_POINT ( 'NONE',  ( 0.0000000000000000000, 0.0000000000000000000, 0.0000000000000000000 ) ) ;
#137 = DATE_TIME_ROLE ( 'creation_date' ) ;
#138 = EDGE_CURVE ( 'NONE', #62, #62, #14, .T. ) ;
#139 = ADVANCED_FACE ( 'NONE', ( #36, #147 ), #95, .T. ) ;
#140 = CC_DESIGN_APPROVAL ( #73, ( #10 ) ) ;
#141 = APPROVAL_STATUS ( 'not_yet_approved' ) ;
#142 = CARTESIAN_POINT ( 'NONE',  ( 2.779219145719134403E-13, -7.189289034394536528E-15, 79.60000000000000853 ) ) ;
#143 = ORIENTED_EDGE ( 'NONE', *, *, #138, .T. ) ;
#144 = DIRECTION ( 'NONE',  ( -3.491481338843133355E-15, 9.031770143711729009E-17, -1.000000000000000000 ) ) ;
#145 = FACE_OUTER_BOUND ( 'NONE', #128, .T. ) ;
#146 = DIRECTION ( 'NONE',  ( 1.799583000369616362E-30, -1.000000000000000000, 5.154210564865541505E-16 ) ) ;
#147 = FACE_OUTER_BOUND ( 'NONE', #200, .T. ) ;
#148 = DIRECTION ( 'NONE',  ( -3.491481338843133355E-15, 9.031770143711729009E-17, -1.000000000000000000 ) ) ;
#149 = CONICAL_SURFACE ( 'NONE', #181, 2.408059892324148965, 0.5235987755982978165 ) ;
#150 = PERSON_AND_ORGANIZATION ( #51, #76 ) ;
#151 = DATE_AND_TIME ( #120, #82 ) ;
#152 = CALENDAR_DATE ( 2021, 26, 11 ) ;
#153 = DIRECTION ( 'NONE',  ( 1.000000000000000000, 0.0000000000000000000, 0.0000000000000000000 ) ) ;
#154 = EDGE_CURVE ( 'NONE', #43, #43, #173, .T. ) ;
#155 = DIRECTION ( 'NONE',  ( -1.799583000369616362E-30, 1.000000000000000000, -5.154210564865541505E-16 ) ) ;
#156 = PRODUCT_DEFINITION_SHAPE ( 'NONE', 'NONE',  #54 ) ;
#157 = SHAPE_DEFINITION_REPRESENTATION ( #156, #63 ) ;
#158 = ORIENTED_EDGE ( 'NONE', *, *, #154, .F. ) ;
#159 = AXIS2_PLACEMENT_3D ( 'NONE', #21, #199, #107 ) ;
#160 = DATE_AND_TIME ( #174, #109 ) ;
#161 = ORIENTED_EDGE ( 'NONE', *, *, #39, .T. ) ;
#162 = DIRECTION ( 'NONE',  ( 0.0000000000000000000, 1.000000000000000000, 0.0000000000000000000 ) ) ;
#163 = FACE_OUTER_BOUND ( 'NONE', #238, .T. ) ;
#164 = AXIS2_PLACEMENT_3D ( 'NONE', #175, #86, #155 ) ;
#165 = DIRECTION ( 'NONE',  ( 3.491481338843133355E-15, 5.154210564865541505E-16, 1.000000000000000000 ) ) ;
#166 = CARTESIAN_POINT ( 'NONE',  ( 4.498800925619321726E-14, 2.638999999999998014, 12.88507796266771166 ) ) ;
#167 = CARTESIAN_POINT ( 'NONE',  ( 4.498800925619322357E-14, 6.641240496429809331E-15, 12.88507796266771344 ) ) ;
#168 = APPROVAL_STATUS ( 'not_yet_approved' ) ;
#169 = AXIS2_PLACEMENT_3D ( 'NONE', #59, #27, #132 ) ;
#170 = VERTEX_POINT ( 'NONE', #211 ) ;
#171 = EDGE_CURVE ( 'NONE', #30, #30, #32, .T. ) ;
#172 = CARTESIAN_POINT ( 'NONE',  ( 4.498800925619321726E-14, 2.638999999999998014, 12.88507796266771166 ) ) ;
#173 = CIRCLE ( 'NONE', #4, 2.408059892324148965 ) ;
#174 = CALENDAR_DATE ( 2021, 26, 11 ) ;
#175 = CARTESIAN_POINT ( 'NONE',  ( -2.166751823049213339E-30, 2.408059892324148965, -6.205823868923052245E-16 ) ) ;
#176 = AXIS2_PLACEMENT_3D ( 'NONE', #136, #102, #153 ) ;
#177 = ORIENTED_EDGE ( 'NONE', *, *, #178, .T. ) ;
#178 = EDGE_CURVE ( 'NONE', #170, #170, #218, .T. ) ;
#179 = APPROVAL_ROLE ( '' ) ;
#180 = EDGE_LOOP ( 'NONE', ( #53 ) ) ;
#181 = AXIS2_PLACEMENT_3D ( 'NONE', #110, #165, #184 ) ;
#182 = ADVANCED_FACE ( 'NONE', ( #111 ), #74, .T. ) ;
#183 = FACE_BOUND ( 'NONE', #180, .T. ) ;
#184 = DIRECTION ( 'NONE',  ( 1.799583000369616011E-30, -1.000000000000000000, 5.154210564865540518E-16 ) ) ;
#185 = DIRECTION ( 'NONE',  ( -2.335345139082672991E-30, 1.000000000000000000, -6.573412186346390773E-16 ) ) ;
#186 = CC_DESIGN_PERSON_AND_ORGANIZATION_ASSIGNMENT ( #71, #217, ( #194 ) ) ;
#187 = CLOSED_SHELL ( 'NONE', ( #224, #139, #229, #216, #182 ) ) ;
#188 = DIRECTION ( 'NONE',  ( 3.153425691349006731E-31, 1.000000000000000000, 9.031770143711729009E-17 ) ) ;
#189 = DIRECTION ( 'NONE',  ( -1.824488389908333720E-30, 1.000000000000000000, -5.135478270583104972E-16 ) ) ;
#190 = APPROVAL ( #65, 'UNSPECIFIED' ) ;
#191 = CIRCLE ( 'NONE', #40, 2.638999999999998458 ) ;
#192 = VERTEX_POINT ( 'NONE', #230 ) ;
#193 = APPROVAL_ROLE ( '' ) ;
#194 = PRODUCT_DEFINITION_FORMATION_WITH_SPECIFIED_SOURCE ( 'ANY', '', #214, .NOT_KNOWN. ) ;
#195 = ORIENTED_EDGE ( 'NONE', *, *, #56, .F. ) ;
#196 = COORDINATED_UNIVERSAL_TIME_OFFSET ( 1, 0, .AHEAD. ) ;
#197 = ORIENTED_EDGE ( 'NONE', *, *, #8, .T. ) ;
#198 = CIRCLE ( 'NONE', #66, 1.999999999999995337 ) ;
#199 = DIRECTION ( 'NONE',  ( -3.491481338843133355E-15, 9.031770143711729009E-17, -1.000000000000000000 ) ) ;
#200 = EDGE_LOOP ( 'NONE', ( #70 ) ) ;
#201 = FACE_OUTER_BOUND ( 'NONE', #125, .T. ) ;
#202 = CONICAL_SURFACE ( 'NONE', #134, 2.638999999999999346, 0.5235987755982929315 ) ;
#203 =( GEOMETRIC_REPRESENTATION_CONTEXT ( 3 ) GLOBAL_UNCERTAINTY_ASSIGNED_CONTEXT ( ( #127 ) ) GLOBAL_UNIT_ASSIGNED_CONTEXT ( ( #11, #122, #83 ) ) REPRESENTATION_CONTEXT ( 'NONE', 'WORKASPACE' ) );
#204 = DIRECTION ( 'NONE',  ( 0.0000000000000000000, 1.000000000000000000, 0.0000000000000000000 ) ) ;
#205 = CARTESIAN_POINT ( 'NONE',  ( 4.333503646098426678E-30, 6.397224589779589631E-31, 1.241164773784610449E-15 ) ) ;
#206 = CARTESIAN_POINT ( 'NONE',  ( 2.793185071074506684E-13, -7.225416114969383207E-15, 80.00000000000000000 ) ) ;
#207 = APPROVAL ( #168, 'UNSPECIFIED' ) ;
#208 = DIRECTION ( 'NONE',  ( -3.491481338843133355E-15, 9.031770143711729009E-17, -1.000000000000000000 ) ) ;
#209 = DIRECTION ( 'NONE',  ( -1.799583000369616362E-30, 1.000000000000000000, -5.154210564865540518E-16 ) ) ;
#210 = APPLICATION_CONTEXT ( 'configuration controlled 3d designs of mechanical parts and assemblies' ) ;
#211 = CARTESIAN_POINT ( 'NONE',  ( 2.793185071074506684E-13, 1.599999999999987876, 80.00000000000000000 ) ) ;
#212 = APPLICATION_PROTOCOL_DEFINITION ( 'international standard', 'config_control_design', 1994, #210 ) ;
#213 = LOCAL_TIME ( 11, 3, 45.00000000000000000, #13 ) ;
#214 = PRODUCT ( '321431', '321431', '', ( #233 ) ) ;
#215 = APPROVAL_DATE_TIME ( #45, #207 ) ;
#216 = ADVANCED_FACE ( 'NONE', ( #183, #2 ), #202, .T. ) ;
#217 = PERSON_AND_ORGANIZATION_ROLE ( 'creator' ) ;
#218 = CIRCLE ( 'NONE', #114, 1.599999999999994982 ) ;
#219 = PERSON_AND_ORGANIZATION ( #51, #76 ) ;
#220 = ADVANCED_FACE ( 'NONE', ( #163, #98 ), #149, .T. ) ;
#221 = DIRECTION ( 'NONE',  ( 0.0000000000000000000, 1.000000000000000000, 0.0000000000000000000 ) ) ;
#222 = AXIS2_PLACEMENT_3D ( 'NONE', #223, #58, #188 ) ;
#223 = CARTESIAN_POINT ( 'NONE',  ( 0.0000000000000000000, 0.0000000000000000000, 0.0000000000000000000 ) ) ;
#224 = ADVANCED_FACE ( 'NONE', ( #25 ), #41, .T. ) ;
#225 = DIRECTION ( 'NONE',  ( -3.491481338843133355E-15, -5.154210564865541505E-16, -1.000000000000000000 ) ) ;
#226 = DIRECTION ( 'NONE',  ( -3.491481338843133355E-15, -5.154210564865541505E-16, -1.000000000000000000 ) ) ;
#227 = PLANE ( 'NONE',  #68 ) ;
#228 = APPROVAL_PERSON_ORGANIZATION ( #89, #73, #179 ) ;
#229 = ADVANCED_FACE ( 'NONE', ( #75, #145 ), #38, .T. ) ;
#230 = CARTESIAN_POINT ( 'NONE',  ( 1.396592535537253145E-15, 2.638999999999998458, 0.3999999999999999667 ) ) ;
#231 = PERSON_AND_ORGANIZATION_ROLE ( 'creator' ) ;
#232 = CC_DESIGN_DATE_AND_TIME_ASSIGNMENT ( #151, #137, ( #54 ) ) ;
#233 = MECHANICAL_CONTEXT ( 'NONE', #20, 'mechanical' ) ;
#234 = LOCAL_TIME ( 11, 3, 45.00000000000000000, #196 ) ;
#235 = DATE_AND_TIME ( #152, #213 ) ;
#236 = COORDINATED_UNIVERSAL_TIME_OFFSET ( 1, 0, .AHEAD. ) ;
#237 = MANIFOLD_SOLID_BREP ( 'Corps-Déplacer/Copier1[1]', #187 ) ;
#238 = EDGE_LOOP ( 'NONE', ( #90 ) ) ;
#239 = AXIS2_PLACEMENT_3D ( 'NONE', #206, #93, #3 ) ;
#240 = ORIENTED_EDGE ( 'NONE', *, *, #8, .F. ) ;
#241 = EDGE_LOOP ( 'NONE', ( #195 ) ) ;
#242 = PERSON_AND_ORGANIZATION_ROLE ( 'design_supplier' ) ;
#243 = CC_DESIGN_PERSON_AND_ORGANIZATION_ASSIGNMENT ( #219, #126, ( #10 ) ) ;
ENDSEC;
END-ISO-10303-21;
