ISO-10303-21;
HEADER;
FILE_DESCRIPTION (( 'STEP AP203' ),
    '1' );
FILE_NAME ('321430.step',
    '2021-11-26T10:03:44',
    ( '' ),
    ( '' ),
    'SwSTEP 2.0',
    'SolidWorks 2019',
    '' );
FILE_SCHEMA (( 'CONFIG_CONTROL_DESIGN' ));
ENDSEC;

DATA;
#1 = CIRCLE ( 'NONE', #38, 1.999999999999991784 ) ;
#2 = UNCERTAINTY_MEASURE_WITH_UNIT (LENGTH_MEASURE( 1.000000000000000082E-05 ), #129, 'distance_accuracy_value', 'NONE');
#3 = DIRECTION ( 'NONE',  ( 0.0000000000000000000, 1.000000000000000000, 0.0000000000000000000 ) ) ;
#4 = APPROVAL_DATE_TIME ( #62, #76 ) ;
#5 = APPROVAL_PERSON_ORGANIZATION ( #209, #76, #6 ) ;
#6 = APPROVAL_ROLE ( '' ) ;
#7 = ORIENTED_EDGE ( 'NONE', *, *, #214, .F. ) ;
#8 = APPROVAL ( #204, 'UNSPECIFIED' ) ;
#9 = CARTESIAN_POINT ( 'NONE',  ( 0.0000000000000000000, 0.0000000000000000000, 0.0000000000000000000 ) ) ;
#10 = FACE_OUTER_BOUND ( 'NONE', #83, .T. ) ;
#11 = EDGE_LOOP ( 'NONE', ( #235 ) ) ;
#12 = DIRECTION ( 'NONE',  ( 3.491481338843133355E-15, 5.149103568234763920E-16, 1.000000000000000000 ) ) ;
#13 = ADVANCED_FACE ( 'NONE', ( #120, #29 ), #44, .T. ) ;
#14 = CARTESIAN_POINT ( 'NONE',  ( 4.501824637155598599E-14, 2.633999999999998121, 12.89373821670555387 ) ) ;
#15 = DIRECTION ( 'NONE',  ( -3.491481338843133355E-15, 9.031770143711729009E-17, -1.000000000000000000 ) ) ;
#16 = CARTESIAN_POINT ( 'NONE',  ( 2.779219145719134403E-13, -7.189289034394536528E-15, 79.60000000000000853 ) ) ;
#17 = PERSON_AND_ORGANIZATION_ROLE ( 'creator' ) ;
#18 = PERSON_AND_ORGANIZATION ( #35, #51 ) ;
#19 = ORIENTED_EDGE ( 'NONE', *, *, #157, .T. ) ;
#20 = AXIS2_PLACEMENT_3D ( 'NONE', #197, #184, #88 ) ;
#21 = LOCAL_TIME ( 11, 3, 44.00000000000000000, #193 ) ;
#22 = EDGE_CURVE ( 'NONE', #222, #222, #118, .T. ) ;
#23 = ORIENTED_EDGE ( 'NONE', *, *, #149, .T. ) ;
#24 = FACE_BOUND ( 'NONE', #202, .T. ) ;
#25 = DIRECTION ( 'NONE',  ( -3.491481338843133355E-15, -5.149103568234763920E-16, -1.000000000000000000 ) ) ;
#26 = DIRECTION ( 'NONE',  ( -3.491481338843133355E-15, -5.149103568234763920E-16, -1.000000000000000000 ) ) ;
#27 = CIRCLE ( 'NONE', #224, 1.999999999999995337 ) ;
#28 = DIRECTION ( 'NONE',  ( 3.491481338843133355E-15, 5.149103568234763920E-16, 1.000000000000000000 ) ) ;
#29 = FACE_OUTER_BOUND ( 'NONE', #11, .T. ) ;
#30 = DIRECTION ( 'NONE',  ( 0.0000000000000000000, 1.000000000000000000, 0.0000000000000000000 ) ) ;
#31 = SECURITY_CLASSIFICATION ( '', '', #59 ) ;
#32 = CARTESIAN_POINT ( 'NONE',  ( 2.793185071074506684E-13, 1.599999999999987876, 80.00000000000000000 ) ) ;
#33 = CARTESIAN_POINT ( 'NONE',  ( 1.396592535537253145E-15, 2.633999999999997677, 0.3999999999999999667 ) ) ;
#34 = APPLICATION_CONTEXT ( 'configuration controlled 3d designs of mechanical parts and assemblies' ) ;
#35 = PERSON ( 'UNSPECIFIED', 'UNSPECIFIED', 'UNSPECIFIED', ('UNSPECIFIED'), ('UNSPECIFIED'), ('UNSPECIFIED') ) ;
#36 = PERSON_AND_ORGANIZATION ( #35, #51 ) ;
#37 = CONICAL_SURFACE ( 'NONE', #179, 2.633999999999999453, 0.5235987755982927094 ) ;
#38 = AXIS2_PLACEMENT_3D ( 'NONE', #236, #49, #52 ) ;
#39 = ORIENTED_EDGE ( 'NONE', *, *, #210, .T. ) ;
#40 = COORDINATED_UNIVERSAL_TIME_OFFSET ( 1, 0, .AHEAD. ) ;
#41 = ORIENTED_EDGE ( 'NONE', *, *, #199, .T. ) ;
#42 = FACE_OUTER_BOUND ( 'NONE', #135, .T. ) ;
#43 = ADVANCED_FACE ( 'NONE', ( #10 ), #125, .T. ) ;
#44 = CONICAL_SURFACE ( 'NONE', #20, 1.999999999999995337, 0.7853981633974516097 ) ;
#45 = CC_DESIGN_SECURITY_CLASSIFICATION ( #31, ( #174 ) ) ;
#46 = EDGE_LOOP ( 'NONE', ( #39 ) ) ;
#47 = PRODUCT_DEFINITION_SHAPE ( 'NONE', 'NONE',  #121 ) ;
#48 = FACE_OUTER_BOUND ( 'NONE', #180, .T. ) ;
#49 = DIRECTION ( 'NONE',  ( -3.491481338843133355E-15, 9.031770143711729009E-17, -1.000000000000000000 ) ) ;
#50 = CC_DESIGN_DATE_AND_TIME_ASSIGNMENT ( #97, #215, ( #121 ) ) ;
#51 = ORGANIZATION ( 'UNSPECIFIED', 'UNSPECIFIED', '' ) ;
#52 = DIRECTION ( 'NONE',  ( 0.0000000000000000000, 1.000000000000000000, 0.0000000000000000000 ) ) ;
#53 = MECHANICAL_CONTEXT ( 'NONE', #34, 'mechanical' ) ;
#54 = CLOSED_SHELL ( 'NONE', ( #172, #130, #151, #229 ) ) ;
#55 = VERTEX_POINT ( 'NONE', #188 ) ;
#56 = APPROVAL ( #226, 'UNSPECIFIED' ) ;
#57 = DIRECTION ( 'NONE',  ( -1.827951731574826686E-30, 1.000000000000000000, -5.145226710732276494E-16 ) ) ;
#58 = AXIS2_PLACEMENT_3D ( 'NONE', #68, #143, #65 ) ;
#59 = SECURITY_CLASSIFICATION_LEVEL ( 'unclassified' ) ;
#60 = ORIENTED_EDGE ( 'NONE', *, *, #183, .T. ) ;
#61 = CC_DESIGN_PERSON_AND_ORGANIZATION_ASSIGNMENT ( #228, #17, ( #174 ) ) ;
#62 = DATE_AND_TIME ( #170, #128 ) ;
#63 = ORIENTED_EDGE ( 'NONE', *, *, #22, .F. ) ;
#64 = LOCAL_TIME ( 11, 3, 44.00000000000000000, #80 ) ;
#65 = DIRECTION ( 'NONE',  ( -3.153425691349006731E-31, -1.000000000000000000, -9.031770143711729009E-17 ) ) ;
#66 = CLOSED_SHELL ( 'NONE', ( #43, #13, #175, #100, #103 ) ) ;
#67 = APPROVAL_PERSON_ORGANIZATION ( #18, #56, #133 ) ;
#68 = CARTESIAN_POINT ( 'NONE',  ( 2.793185071074506684E-13, -7.225416114969383207E-15, 80.00000000000000000 ) ) ;
#69 = DIRECTION ( 'NONE',  ( -3.491481338843133355E-15, 9.031770143711729009E-17, -1.000000000000000000 ) ) ;
#70 = DIRECTION ( 'NONE',  ( -1.797799902026226500E-30, 1.000000000000000000, -5.149103568234763920E-16 ) ) ;
#71 =( GEOMETRIC_REPRESENTATION_CONTEXT ( 3 ) GLOBAL_UNCERTAINTY_ASSIGNED_CONTEXT ( ( #2 ) ) GLOBAL_UNIT_ASSIGNED_CONTEXT ( ( #129, #223, #111 ) ) REPRESENTATION_CONTEXT ( 'NONE', 'WORKASPACE' ) );
#72 = CARTESIAN_POINT ( 'NONE',  ( -2.160110419491754347E-30, 2.403059892324148183, -6.186802133124059265E-16 ) ) ;
#73 = VERTEX_POINT ( 'NONE', #32 ) ;
#74 = AXIS2_PLACEMENT_3D ( 'NONE', #119, #69, #122 ) ;
#75 = VERTEX_POINT ( 'NONE', #33 ) ;
#76 = APPROVAL ( #113, 'UNSPECIFIED' ) ;
#77 = APPLICATION_CONTEXT ( 'configuration controlled 3d designs of mechanical parts and assemblies' ) ;
#78 = PERSON_AND_ORGANIZATION_ROLE ( 'classification_officer' ) ;
#79 = AXIS2_PLACEMENT_3D ( 'NONE', #233, #25, #177 ) ;
#80 = COORDINATED_UNIVERSAL_TIME_OFFSET ( 1, 0, .AHEAD. ) ;
#81 = PERSON_AND_ORGANIZATION ( #35, #51 ) ;
#82 = DATE_TIME_ROLE ( 'classification_date' ) ;
#83 = EDGE_LOOP ( 'NONE', ( #102 ) ) ;
#84 = ORIENTED_EDGE ( 'NONE', *, *, #157, .F. ) ;
#85 = APPROVAL_PERSON_ORGANIZATION ( #127, #8, #114 ) ;
#86 = ORIENTED_EDGE ( 'NONE', *, *, #210, .F. ) ;
#87 = DIRECTION ( 'NONE',  ( -3.491481338843133355E-15, 9.031770143711729009E-17, -1.000000000000000000 ) ) ;
#88 = DIRECTION ( 'NONE',  ( 0.0000000000000000000, 1.000000000000000000, 0.0000000000000000000 ) ) ;
#89 = CC_DESIGN_DATE_AND_TIME_ASSIGNMENT ( #134, #82, ( #31 ) ) ;
#90 = FACE_OUTER_BOUND ( 'NONE', #156, .T. ) ;
#91 = DIRECTION ( 'NONE',  ( -3.491481338843133355E-15, -5.149103568234763920E-16, -1.000000000000000000 ) ) ;
#92 = CC_DESIGN_APPROVAL ( #76, ( #31 ) ) ;
#93 = PERSON_AND_ORGANIZATION_ROLE ( 'design_owner' ) ;
#94 = CARTESIAN_POINT ( 'NONE',  ( 4.501824637155598599E-14, -1.164532798664761509E-15, 12.89373821670555387 ) ) ;
#95 = CARTESIAN_POINT ( 'NONE',  ( 0.0000000000000000000, 2.403059892324148183, 0.0000000000000000000 ) ) ;
#96 = COORDINATED_UNIVERSAL_TIME_OFFSET ( 1, 0, .AHEAD. ) ;
#97 = DATE_AND_TIME ( #230, #21 ) ;
#98 = EDGE_LOOP ( 'NONE', ( #86 ) ) ;
#99 = CIRCLE ( 'NONE', #115, 2.633999999999999453 ) ;
#100 = ADVANCED_FACE ( 'NONE', ( #24, #90 ), #37, .T. ) ;
#101 = FACE_OUTER_BOUND ( 'NONE', #98, .T. ) ;
#102 = ORIENTED_EDGE ( 'NONE', *, *, #199, .F. ) ;
#103 = ADVANCED_FACE ( 'NONE', ( #48 ), #237, .T. ) ;
#104 = DIRECTION ( 'NONE',  ( -2.339778216415783455E-30, 1.000000000000000000, -6.585890189737328822E-16 ) ) ;
#105 = CIRCLE ( 'NONE', #231, 2.633999999999991903 ) ;
#106 = AXIS2_PLACEMENT_3D ( 'NONE', #200, #28, #108 ) ;
#107 = DESIGN_CONTEXT ( 'detailed design', #77, 'design' ) ;
#108 = DIRECTION ( 'NONE',  ( 1.797799902026226850E-30, -1.000000000000000000, 5.149103568234763920E-16 ) ) ;
#109 = FACE_OUTER_BOUND ( 'NONE', #46, .T. ) ;
#110 = DIRECTION ( 'NONE',  ( 0.0000000000000000000, 1.000000000000000000, 0.0000000000000000000 ) ) ;
#111 =( NAMED_UNIT ( * ) SI_UNIT ( $, .STERADIAN. ) SOLID_ANGLE_UNIT ( ) );
#112 = APPROVAL_DATE_TIME ( #155, #8 ) ;
#113 = APPROVAL_STATUS ( 'not_yet_approved' ) ;
#114 = APPROVAL_ROLE ( '' ) ;
#115 = AXIS2_PLACEMENT_3D ( 'NONE', #94, #240, #3 ) ;
#116 = CALENDAR_DATE ( 2021, 26, 11 ) ;
#117 = ORIENTED_EDGE ( 'NONE', *, *, #149, .F. ) ;
#118 = CIRCLE ( 'NONE', #79, 2.403059892324148183 ) ;
#119 = CARTESIAN_POINT ( 'NONE',  ( 4.501824637155599230E-14, 2.633999999999998121, 12.89373821670555564 ) ) ;
#120 = FACE_BOUND ( 'NONE', #144, .T. ) ;
#121 = PRODUCT_DEFINITION ( 'UNKNOWN', '', #174, #107 ) ;
#122 = DIRECTION ( 'NONE',  ( 3.153425691349006731E-31, 1.000000000000000000, 9.031770143711729009E-17 ) ) ;
#123 = PLANE ( 'NONE',  #106 ) ;
#124 = AXIS2_PLACEMENT_3D ( 'NONE', #9, #87, #160 ) ;
#125 = PLANE ( 'NONE',  #58 ) ;
#126 = CARTESIAN_POINT ( 'NONE',  ( 0.0000000000000000000, 0.0000000000000000000, 0.0000000000000000000 ) ) ;
#127 = PERSON_AND_ORGANIZATION ( #35, #51 ) ;
#128 = LOCAL_TIME ( 11, 3, 44.00000000000000000, #171 ) ;
#129 =( LENGTH_UNIT ( ) NAMED_UNIT ( * ) SI_UNIT ( .MILLI., .METRE. ) );
#130 = ADVANCED_FACE ( 'NONE', ( #198, #101 ), #159, .T. ) ;
#131 = DIRECTION ( 'NONE',  ( -1.797799902026226850E-30, 1.000000000000000000, -5.149103568234763920E-16 ) ) ;
#132 = CARTESIAN_POINT ( 'NONE',  ( 4.885231259955590439E-14, 1.999999999999990452, 13.99185842870425134 ) ) ;
#133 = APPROVAL_ROLE ( '' ) ;
#134 = DATE_AND_TIME ( #192, #181 ) ;
#135 = EDGE_LOOP ( 'NONE', ( #84 ) ) ;
#136 = PERSON_AND_ORGANIZATION ( #35, #51 ) ;
#137 = ORIENTED_EDGE ( 'NONE', *, *, #214, .T. ) ;
#138 = AXIS2_PLACEMENT_3D ( 'NONE', #232, #26, #70 ) ;
#139 = PERSON_AND_ORGANIZATION_ROLE ( 'creator' ) ;
#140 = EDGE_LOOP ( 'NONE', ( #60 ) ) ;
#141 = FACE_OUTER_BOUND ( 'NONE', #154, .T. ) ;
#142 = EDGE_LOOP ( 'NONE', ( #63 ) ) ;
#143 = DIRECTION ( 'NONE',  ( 3.491481338843133355E-15, -9.031770143711729009E-17, 1.000000000000000000 ) ) ;
#144 = EDGE_LOOP ( 'NONE', ( #41 ) ) ;
#145 = CARTESIAN_POINT ( 'NONE',  ( 4.320220838983508695E-30, 6.371296987926308860E-31, 1.237360426624811853E-15 ) ) ;
#146 = FACE_OUTER_BOUND ( 'NONE', #218, .T. ) ;
#147 = DIRECTION ( 'NONE',  ( -3.491481338843133355E-15, 9.031770143711729009E-17, -1.000000000000000000 ) ) ;
#148 = CARTESIAN_POINT ( 'NONE',  ( 2.793185071074506684E-13, -7.225416114969383207E-15, 80.00000000000000000 ) ) ;
#149 = EDGE_CURVE ( 'NONE', #167, #167, #105, .T. ) ;
#150 = PLANE ( 'NONE',  #217 ) ;
#151 = ADVANCED_FACE ( 'NONE', ( #109, #162 ), #169, .T. ) ;
#152 = CC_DESIGN_APPROVAL ( #8, ( #121 ) ) ;
#153 = CALENDAR_DATE ( 2021, 26, 11 ) ;
#154 = EDGE_LOOP ( 'NONE', ( #117 ) ) ;
#155 = DATE_AND_TIME ( #116, #64 ) ;
#156 = EDGE_LOOP ( 'NONE', ( #7 ) ) ;
#157 = EDGE_CURVE ( 'NONE', #207, #207, #1, .T. ) ;
#158 = MANIFOLD_SOLID_BREP ( 'Corps-Déplacer/Copier1[2]', #54 ) ;
#159 = CYLINDRICAL_SURFACE ( 'NONE', #138, 2.633999999999995012 ) ;
#160 = DIRECTION ( 'NONE',  ( 3.153425691349006731E-31, 1.000000000000000000, 9.031770143711729009E-17 ) ) ;
#161 = ORIENTED_EDGE ( 'NONE', *, *, #22, .T. ) ;
#162 = FACE_BOUND ( 'NONE', #142, .T. ) ;
#163 = DIRECTION ( 'NONE',  ( -3.491481338843133355E-15, 9.031770143711729009E-17, -1.000000000000000000 ) ) ;
#164 = CC_DESIGN_PERSON_AND_ORGANIZATION_ASSIGNMENT ( #36, #78, ( #31 ) ) ;
#165 = CIRCLE ( 'NONE', #227, 2.633999999999997677 ) ;
#166 = DIRECTION ( 'NONE',  ( 1.000000000000000000, 0.0000000000000000000, 0.0000000000000000000 ) ) ;
#167 = VERTEX_POINT ( 'NONE', #242 ) ;
#168 = APPLICATION_PROTOCOL_DEFINITION ( 'international standard', 'config_control_design', 1994, #34 ) ;
#169 = CONICAL_SURFACE ( 'NONE', #206, 2.403059892324148183, 0.5235987755982978165 ) ;
#170 = CALENDAR_DATE ( 2021, 26, 11 ) ;
#171 = COORDINATED_UNIVERSAL_TIME_OFFSET ( 1, 0, .AHEAD. ) ;
#172 = ADVANCED_FACE ( 'NONE', ( #141 ), #123, .T. ) ;
#173 = AXIS2_PLACEMENT_3D ( 'NONE', #126, #203, #166 ) ;
#174 = PRODUCT_DEFINITION_FORMATION_WITH_SPECIFIED_SOURCE ( 'ANY', '', #178, .NOT_KNOWN. ) ;
#175 = ADVANCED_FACE ( 'NONE', ( #216, #42 ), #176, .T. ) ;
#176 = CYLINDRICAL_SURFACE ( 'NONE', #124, 1.999999999999993561 ) ;
#177 = DIRECTION ( 'NONE',  ( -1.797799902026226850E-30, 1.000000000000000000, -5.149103568234763920E-16 ) ) ;
#178 = PRODUCT ( '321430', '321430', '', ( #53 ) ) ;
#179 = AXIS2_PLACEMENT_3D ( 'NONE', #182, #163, #219 ) ;
#180 = EDGE_LOOP ( 'NONE', ( #137 ) ) ;
#181 = LOCAL_TIME ( 11, 3, 44.00000000000000000, #96 ) ;
#182 = CARTESIAN_POINT ( 'NONE',  ( 4.501824637155598599E-14, -1.164532798664761509E-15, 12.89373821670555387 ) ) ;
#183 = EDGE_CURVE ( 'NONE', #55, #55, #27, .T. ) ;
#184 = DIRECTION ( 'NONE',  ( -3.491481338843133355E-15, 9.031770143711729009E-17, -1.000000000000000000 ) ) ;
#185 = PERSON_AND_ORGANIZATION ( #35, #51 ) ;
#186 = LOCAL_TIME ( 11, 3, 44.00000000000000000, #40 ) ;
#187 = DIRECTION ( 'NONE',  ( -3.491481338843133355E-15, -5.149103568234763920E-16, -1.000000000000000000 ) ) ;
#188 = CARTESIAN_POINT ( 'NONE',  ( 2.779219145719134403E-13, 1.999999999999988010, 79.60000000000000853 ) ) ;
#189 = VERTEX_POINT ( 'NONE', #14 ) ;
#190 = AXIS2_PLACEMENT_3D ( 'NONE', #148, #15, #110 ) ;
#191 = APPROVAL_DATE_TIME ( #194, #56 ) ;
#192 = CALENDAR_DATE ( 2021, 26, 11 ) ;
#193 = COORDINATED_UNIVERSAL_TIME_OFFSET ( 1, 0, .AHEAD. ) ;
#194 = DATE_AND_TIME ( #153, #186 ) ;
#195 = PRODUCT_RELATED_PRODUCT_CATEGORY ( 'detail', '', ( #178 ) ) ;
#196 = DIRECTION ( 'NONE',  ( -3.491481338843133355E-15, -5.149103568234763920E-16, -1.000000000000000000 ) ) ;
#197 = CARTESIAN_POINT ( 'NONE',  ( 2.779219145719134403E-13, -7.189289034394536528E-15, 79.60000000000000853 ) ) ;
#198 = FACE_OUTER_BOUND ( 'NONE', #213, .T. ) ;
#199 = EDGE_CURVE ( 'NONE', #73, #73, #201, .T. ) ;
#200 = CARTESIAN_POINT ( 'NONE',  ( 4.501824637155599230E-14, 6.639119345952352143E-15, 12.89373821670555564 ) ) ;
#201 = CIRCLE ( 'NONE', #190, 1.599999999999994982 ) ;
#202 = EDGE_LOOP ( 'NONE', ( #19 ) ) ;
#203 = DIRECTION ( 'NONE',  ( 0.0000000000000000000, 0.0000000000000000000, 1.000000000000000000 ) ) ;
#204 = APPROVAL_STATUS ( 'not_yet_approved' ) ;
#206 = AXIS2_PLACEMENT_3D ( 'NONE', #145, #12, #221 ) ;
#205 = ADVANCED_BREP_SHAPE_REPRESENTATION ( '321430', ( #238, #158, #173 ), #71 ) ;
#207 = VERTEX_POINT ( 'NONE', #132 ) ;
#208 = CC_DESIGN_PERSON_AND_ORGANIZATION_ASSIGNMENT ( #81, #139, ( #121 ) ) ;
#209 = PERSON_AND_ORGANIZATION ( #35, #51 ) ;
#210 = EDGE_CURVE ( 'NONE', #75, #75, #165, .T. ) ;
#211 = PERSON_AND_ORGANIZATION_ROLE ( 'design_supplier' ) ;
#212 = SHAPE_DEFINITION_REPRESENTATION ( #47, #205 ) ;
#213 = EDGE_LOOP ( 'NONE', ( #23 ) ) ;
#214 = EDGE_CURVE ( 'NONE', #189, #189, #99, .T. ) ;
#215 = DATE_TIME_ROLE ( 'creation_date' ) ;
#216 = FACE_OUTER_BOUND ( 'NONE', #140, .T. ) ;
#217 = AXIS2_PLACEMENT_3D ( 'NONE', #72, #91, #131 ) ;
#218 = EDGE_LOOP ( 'NONE', ( #161 ) ) ;
#219 = DIRECTION ( 'NONE',  ( 0.0000000000000000000, 1.000000000000000000, 0.0000000000000000000 ) ) ;
#220 = CARTESIAN_POINT ( 'NONE',  ( 4.501824637155599230E-14, 6.639119345952352143E-15, 12.89373821670555564 ) ) ;
#221 = DIRECTION ( 'NONE',  ( 1.797799902026226850E-30, -1.000000000000000000, 5.149103568234763920E-16 ) ) ;
#222 = VERTEX_POINT ( 'NONE', #95 ) ;
#223 =( NAMED_UNIT ( * ) PLANE_ANGLE_UNIT ( ) SI_UNIT ( $, .RADIAN. ) );
#224 = AXIS2_PLACEMENT_3D ( 'NONE', #16, #147, #30 ) ;
#225 = CC_DESIGN_PERSON_AND_ORGANIZATION_ASSIGNMENT ( #185, #93, ( #178 ) ) ;
#226 = APPROVAL_STATUS ( 'not_yet_approved' ) ;
#227 = AXIS2_PLACEMENT_3D ( 'NONE', #243, #187, #57 ) ;
#228 = PERSON_AND_ORGANIZATION ( #35, #51 ) ;
#229 = ADVANCED_FACE ( 'NONE', ( #146 ), #150, .T. ) ;
#230 = CALENDAR_DATE ( 2021, 26, 11 ) ;
#231 = AXIS2_PLACEMENT_3D ( 'NONE', #220, #196, #104 ) ;
#232 = CARTESIAN_POINT ( 'NONE',  ( 0.0000000000000000000, 0.0000000000000000000, 0.0000000000000000000 ) ) ;
#233 = CARTESIAN_POINT ( 'NONE',  ( 4.320220838983508695E-30, 6.371296987926308860E-31, 1.237360426624811853E-15 ) ) ;
#234 = CC_DESIGN_APPROVAL ( #56, ( #174 ) ) ;
#235 = ORIENTED_EDGE ( 'NONE', *, *, #183, .F. ) ;
#236 = CARTESIAN_POINT ( 'NONE',  ( 4.885231259955590439E-14, -1.263712492114123682E-15, 13.99185842870425134 ) ) ;
#237 = PLANE ( 'NONE',  #74 ) ;
#238 = MANIFOLD_SOLID_BREP ( 'Corps-Déplacer/Copier1[1]', #66 ) ;
#239 = CC_DESIGN_PERSON_AND_ORGANIZATION_ASSIGNMENT ( #136, #211, ( #174 ) ) ;
#240 = DIRECTION ( 'NONE',  ( -3.491481338843133355E-15, 9.031770143711729009E-17, -1.000000000000000000 ) ) ;
#241 = APPLICATION_PROTOCOL_DEFINITION ( 'international standard', 'config_control_design', 1994, #77 ) ;
#242 = CARTESIAN_POINT ( 'NONE',  ( 4.501824637155598599E-14, 2.633999999999998121, 12.89373821670555387 ) ) ;
#243 = CARTESIAN_POINT ( 'NONE',  ( 1.396592535537257878E-15, 2.059641427293912520E-16, 0.4000000000000012990 ) ) ;
ENDSEC;
END-ISO-10303-21;
