ISO-10303-21;
HEADER;
FILE_DESCRIPTION (( 'STEP AP203' ),
    '1' );
FILE_NAME ('321429.step',
    '2021-11-26T10:03:44',
    ( '' ),
    ( '' ),
    'SwSTEP 2.0',
    'SolidWorks 2019',
    '' );
FILE_SCHEMA (( 'CONFIG_CONTROL_DESIGN' ));
ENDSEC;

DATA;
#1 = CC_DESIGN_PERSON_AND_ORGANIZATION_ASSIGNMENT ( #53, #232, ( #243 ) ) ;
#2 = ORIENTED_EDGE ( 'NONE', *, *, #5, .F. ) ;
#3 = PERSON_AND_ORGANIZATION ( #102, #66 ) ;
#4 = CONICAL_SURFACE ( 'NONE', #47, 2.628999999999999559, 0.5235987755982928205 ) ;
#5 = EDGE_CURVE ( 'NONE', #70, #70, #95, .T. ) ;
#6 = ORIENTED_EDGE ( 'NONE', *, *, #200, .T. ) ;
#7 = DIRECTION ( 'NONE',  ( -3.491481338843133355E-15, -5.144003427366247195E-16, -1.000000000000000000 ) ) ;
#8 = PRODUCT_DEFINITION_FORMATION_WITH_SPECIFIED_SOURCE ( 'ANY', '', #123, .NOT_KNOWN. ) ;
#9 = PLANE ( 'NONE',  #130 ) ;
#10 = CARTESIAN_POINT ( 'NONE',  ( 4.504848348691876734E-14, 6.636998195474908365E-15, 12.90239847074340140 ) ) ;
#11 = FACE_OUTER_BOUND ( 'NONE', #94, .T. ) ;
#12 = DIRECTION ( 'NONE',  ( -3.491481338843133355E-15, 9.031770143711729009E-17, -1.000000000000000000 ) ) ;
#13 = DIRECTION ( 'NONE',  ( -3.491481338843133355E-15, 9.031770143711729009E-17, -1.000000000000000000 ) ) ;
#14 = CARTESIAN_POINT ( 'NONE',  ( 1.396592535537257878E-15, 2.057601370946505682E-16, 0.4000000000000012990 ) ) ;
#15 = PERSON_AND_ORGANIZATION ( #102, #66 ) ;
#16 = AXIS2_PLACEMENT_3D ( 'NONE', #90, #12, #89 ) ;
#17 = PERSON_AND_ORGANIZATION ( #102, #66 ) ;
#18 = EDGE_LOOP ( 'NONE', ( #153 ) ) ;
#19 = APPROVAL_DATE_TIME ( #33, #74 ) ;
#20 = ADVANCED_FACE ( 'NONE', ( #160 ), #241, .T. ) ;
#21 = ORIENTED_EDGE ( 'NONE', *, *, #200, .F. ) ;
#22 = CALENDAR_DATE ( 2021, 26, 11 ) ;
#23 = APPROVAL_PERSON_ORGANIZATION ( #17, #74, #193 ) ;
#24 = DIRECTION ( 'NONE',  ( 3.491481338843133355E-15, 5.144003427366247195E-16, 1.000000000000000000 ) ) ;
#25 = ORIENTED_EDGE ( 'NONE', *, *, #228, .F. ) ;
#26 = CARTESIAN_POINT ( 'NONE',  ( 0.0000000000000000000, 0.0000000000000000000, 0.0000000000000000000 ) ) ;
#27 = CARTESIAN_POINT ( 'NONE',  ( 4.306961603031875773E-30, 6.345451428038174305E-31, 1.233562830514495432E-15 ) ) ;
#28 = CIRCLE ( 'NONE', #170, 2.398059892324148734 ) ;
#29 = CARTESIAN_POINT ( 'NONE',  ( 4.885231259955590439E-14, 1.999999999999990452, 13.99185842870425134 ) ) ;
#30 = DIRECTION ( 'NONE',  ( -3.491481338843133355E-15, -5.144003427366247195E-16, -1.000000000000000000 ) ) ;
#31 = CARTESIAN_POINT ( 'NONE',  ( 1.396592535537253145E-15, 2.628999999999998671, 0.3999999999999999667 ) ) ;
#32 = CONICAL_SURFACE ( 'NONE', #43, 1.999999999999995337, 0.7853981633974516097 ) ;
#33 = DATE_AND_TIME ( #192, #168 ) ;
#34 = APPROVAL_STATUS ( 'not_yet_approved' ) ;
#35 = EDGE_LOOP ( 'NONE', ( #2 ) ) ;
#36 = COORDINATED_UNIVERSAL_TIME_OFFSET ( 1, 0, .AHEAD. ) ;
#37 = ADVANCED_FACE ( 'NONE', ( #106, #180 ), #202, .T. ) ;
#38 = EDGE_CURVE ( 'NONE', #48, #48, #190, .T. ) ;
#39 = AXIS2_PLACEMENT_3D ( 'NONE', #26, #64, #158 ) ;
#40 = DIRECTION ( 'NONE',  ( -3.491481338843133355E-15, -5.144003427366247195E-16, -1.000000000000000000 ) ) ;
#41 = DIRECTION ( 'NONE',  ( -3.491481338843133355E-15, 9.031770143711729009E-17, -1.000000000000000000 ) ) ;
#42 = FACE_OUTER_BOUND ( 'NONE', #117, .T. ) ;
#43 = AXIS2_PLACEMENT_3D ( 'NONE', #145, #125, #198 ) ;
#44 = ADVANCED_FACE ( 'NONE', ( #108 ), #161, .T. ) ;
#45 = ORIENTED_EDGE ( 'NONE', *, *, #38, .F. ) ;
#46 = MECHANICAL_CONTEXT ( 'NONE', #126, 'mechanical' ) ;
#47 = AXIS2_PLACEMENT_3D ( 'NONE', #167, #242, #131 ) ;
#48 = VERTEX_POINT ( 'NONE', #183 ) ;
#49 = DESIGN_CONTEXT ( 'detailed design', #231, 'design' ) ;
#50 =( NAMED_UNIT ( * ) SI_UNIT ( $, .STERADIAN. ) SOLID_ANGLE_UNIT ( ) );
#51 = AXIS2_PLACEMENT_3D ( 'NONE', #226, #129, #184 ) ;
#52 = DATE_TIME_ROLE ( 'creation_date' ) ;
#53 = PERSON_AND_ORGANIZATION ( #102, #66 ) ;
#54 = ORIENTED_EDGE ( 'NONE', *, *, #228, .T. ) ;
#55 = DATE_AND_TIME ( #135, #137 ) ;
#56 = ADVANCED_FACE ( 'NONE', ( #142, #141 ), #32, .T. ) ;
#57 = CC_DESIGN_APPROVAL ( #74, ( #243 ) ) ;
#58 = APPROVAL_DATE_TIME ( #234, #166 ) ;
#59 = EDGE_LOOP ( 'NONE', ( #197 ) ) ;
#60 = DATE_AND_TIME ( #210, #62 ) ;
#61 = ORIENTED_EDGE ( 'NONE', *, *, #38, .T. ) ;
#62 = LOCAL_TIME ( 11, 3, 44.00000000000000000, #175 ) ;
#63 = DIRECTION ( 'NONE',  ( 3.491481338843133355E-15, -9.031770143711729009E-17, 1.000000000000000000 ) ) ;
#64 = DIRECTION ( 'NONE',  ( -3.491481338843133355E-15, 9.031770143711729009E-17, -1.000000000000000000 ) ) ;
#65 = DIRECTION ( 'NONE',  ( 1.796019197359437034E-30, -1.000000000000000000, 5.144003427366247195E-16 ) ) ;
#66 = ORGANIZATION ( 'UNSPECIFIED', 'UNSPECIFIED', '' ) ;
#67 = MANIFOLD_SOLID_BREP ( 'Corps-Déplacer/Copier1[2]', #230 ) ;
#68 = DIRECTION ( 'NONE',  ( 0.0000000000000000000, 1.000000000000000000, 0.0000000000000000000 ) ) ;
#69 = DIRECTION ( 'NONE',  ( -1.796019197359437034E-30, 1.000000000000000000, -5.144003427366247195E-16 ) ) ;
#70 = VERTEX_POINT ( 'NONE', #227 ) ;
#71 = LOCAL_TIME ( 11, 3, 44.00000000000000000, #36 ) ;
#72 = FACE_OUTER_BOUND ( 'NONE', #178, .T. ) ;
#73 = CARTESIAN_POINT ( 'NONE',  ( 0.0000000000000000000, 0.0000000000000000000, 0.0000000000000000000 ) ) ;
#74 = APPROVAL ( #134, 'UNSPECIFIED' ) ;
#75 = ORIENTED_EDGE ( 'NONE', *, *, #194, .T. ) ;
#76 = PERSON_AND_ORGANIZATION ( #102, #66 ) ;
#77 = EDGE_LOOP ( 'NONE', ( #235 ) ) ;
#78 = CIRCLE ( 'NONE', #16, 2.628999999999999559 ) ;
#79 = APPROVAL_DATE_TIME ( #60, #212 ) ;
#80 = EDGE_LOOP ( 'NONE', ( #54 ) ) ;
#81 = ADVANCED_FACE ( 'NONE', ( #11 ), #9, .T. ) ;
#82 = AXIS2_PLACEMENT_3D ( 'NONE', #124, #201, #86 ) ;
#83 = DIRECTION ( 'NONE',  ( -1.796019197359437034E-30, 1.000000000000000000, -5.144003427366247195E-16 ) ) ;
#84 = PRODUCT_DEFINITION_SHAPE ( 'NONE', 'NONE',  #172 ) ;
#85 = DIRECTION ( 'NONE',  ( 0.0000000000000000000, 1.000000000000000000, 0.0000000000000000000 ) ) ;
#86 = DIRECTION ( 'NONE',  ( -1.796019197359437034E-30, 1.000000000000000000, -5.144003427366247195E-16 ) ) ;
#87 = CARTESIAN_POINT ( 'NONE',  ( -2.153480801515937886E-30, 2.398059892324148734, -6.167814152572477162E-16 ) ) ;
#88 = CIRCLE ( 'NONE', #144, 2.628999999999998671 ) ;
#89 = DIRECTION ( 'NONE',  ( 0.0000000000000000000, 1.000000000000000000, 0.0000000000000000000 ) ) ;
#90 = CARTESIAN_POINT ( 'NONE',  ( 4.504848348691876103E-14, -1.165314972903321200E-15, 12.90239847074339963 ) ) ;
#91 = CC_DESIGN_APPROVAL ( #212, ( #172 ) ) ;
#92 = DIRECTION ( 'NONE',  ( -1.831428246849787607E-30, 1.000000000000000000, -5.155012231292815145E-16 ) ) ;
#93 =( LENGTH_UNIT ( ) NAMED_UNIT ( * ) SI_UNIT ( .MILLI., .METRE. ) );
#94 = EDGE_LOOP ( 'NONE', ( #6 ) ) ;
#95 = CIRCLE ( 'NONE', #222, 1.599999999999994982 ) ;
#96 = DATE_AND_TIME ( #22, #203 ) ;
#97 = PRODUCT_RELATED_PRODUCT_CATEGORY ( 'detail', '', ( #123 ) ) ;
#98 = EDGE_LOOP ( 'NONE', ( #191 ) ) ;
#99 = APPROVAL_PERSON_ORGANIZATION ( #76, #166, #211 ) ;
#100 = APPROVAL_STATUS ( 'not_yet_approved' ) ;
#101 = CARTESIAN_POINT ( 'NONE',  ( 4.885231259955590439E-14, -1.263712492114123682E-15, 13.99185842870425134 ) ) ;
#102 = PERSON ( 'UNSPECIFIED', 'UNSPECIFIED', 'UNSPECIFIED', ('UNSPECIFIED'), ('UNSPECIFIED'), ('UNSPECIFIED') ) ;
#103 = DIRECTION ( 'NONE',  ( -3.153425691349006731E-31, -1.000000000000000000, -9.031770143711729009E-17 ) ) ;
#104 = EDGE_CURVE ( 'NONE', #133, #133, #113, .T. ) ;
#105 = AXIS2_PLACEMENT_3D ( 'NONE', #73, #229, #114 ) ;
#106 = FACE_OUTER_BOUND ( 'NONE', #59, .T. ) ;
#107 = UNCERTAINTY_MEASURE_WITH_UNIT (LENGTH_MEASURE( 1.000000000000000082E-05 ), #93, 'distance_accuracy_value', 'NONE');
#108 = FACE_OUTER_BOUND ( 'NONE', #188, .T. ) ;
#109 = FACE_BOUND ( 'NONE', #154, .T. ) ;
#110 = AXIS2_PLACEMENT_3D ( 'NONE', #101, #164, #221 ) ;
#111 = VERTEX_POINT ( 'NONE', #150 ) ;
#112 = DIRECTION ( 'NONE',  ( -3.491481338843133355E-15, -5.144003427366247195E-16, -1.000000000000000000 ) ) ;
#113 = CIRCLE ( 'NONE', #179, 1.999999999999995337 ) ;
#114 = DIRECTION ( 'NONE',  ( 1.000000000000000000, 0.0000000000000000000, 0.0000000000000000000 ) ) ;
#115 = COORDINATED_UNIVERSAL_TIME_OFFSET ( 1, 0, .AHEAD. ) ;
#116 = CC_DESIGN_DATE_AND_TIME_ASSIGNMENT ( #55, #138, ( #243 ) ) ;
#117 = EDGE_LOOP ( 'NONE', ( #25 ) ) ;
#118 = PERSON_AND_ORGANIZATION_ROLE ( 'creator' ) ;
#119 = CC_DESIGN_PERSON_AND_ORGANIZATION_ASSIGNMENT ( #15, #187, ( #123 ) ) ;
#120 = COORDINATED_UNIVERSAL_TIME_OFFSET ( 1, 0, .AHEAD. ) ;
#121 = AXIS2_PLACEMENT_3D ( 'NONE', #239, #24, #65 ) ;
#122 = FACE_OUTER_BOUND ( 'NONE', #174, .T. ) ;
#123 = PRODUCT ( '321429', '321429', '', ( #46 ) ) ;
#124 = CARTESIAN_POINT ( 'NONE',  ( 0.0000000000000000000, 0.0000000000000000000, 0.0000000000000000000 ) ) ;
#125 = DIRECTION ( 'NONE',  ( -3.491481338843133355E-15, 9.031770143711729009E-17, -1.000000000000000000 ) ) ;
#126 = APPLICATION_CONTEXT ( 'configuration controlled 3d designs of mechanical parts and assemblies' ) ;
#127 = CYLINDRICAL_SURFACE ( 'NONE', #82, 2.628999999999995119 ) ;
#128 = FACE_OUTER_BOUND ( 'NONE', #80, .T. ) ;
#129 = DIRECTION ( 'NONE',  ( 3.491481338843133355E-15, 5.144003427366247195E-16, 1.000000000000000000 ) ) ;
#130 = AXIS2_PLACEMENT_3D ( 'NONE', #87, #40, #83 ) ;
#131 = DIRECTION ( 'NONE',  ( 0.0000000000000000000, 1.000000000000000000, 0.0000000000000000000 ) ) ;
#132 = CC_DESIGN_DATE_AND_TIME_ASSIGNMENT ( #96, #52, ( #172 ) ) ;
#133 = VERTEX_POINT ( 'NONE', #204 ) ;
#134 = APPROVAL_STATUS ( 'not_yet_approved' ) ;
#135 = CALENDAR_DATE ( 2021, 26, 11 ) ;
#136 = COORDINATED_UNIVERSAL_TIME_OFFSET ( 1, 0, .AHEAD. ) ;
#137 = LOCAL_TIME ( 11, 3, 44.00000000000000000, #120 ) ;
#138 = DATE_TIME_ROLE ( 'classification_date' ) ;
#139 = APPLICATION_PROTOCOL_DEFINITION ( 'international standard', 'config_control_design', 1994, #231 ) ;
#140 = ORIENTED_EDGE ( 'NONE', *, *, #5, .T. ) ;
#141 = FACE_OUTER_BOUND ( 'NONE', #77, .T. ) ;
#142 = FACE_BOUND ( 'NONE', #177, .T. ) ;
#143 = EDGE_CURVE ( 'NONE', #207, #207, #214, .T. ) ;
#144 = AXIS2_PLACEMENT_3D ( 'NONE', #14, #112, #92 ) ;
#145 = CARTESIAN_POINT ( 'NONE',  ( 2.779219145719134403E-13, -7.189289034394536528E-15, 79.60000000000000853 ) ) ;
#146 =( NAMED_UNIT ( * ) PLANE_ANGLE_UNIT ( ) SI_UNIT ( $, .RADIAN. ) );
#147 = CC_DESIGN_PERSON_AND_ORGANIZATION_ASSIGNMENT ( #152, #189, ( #8 ) ) ;
#148 = CLOSED_SHELL ( 'NONE', ( #20, #56, #37, #176, #181 ) ) ;
#149 = DIRECTION ( 'NONE',  ( 3.153425691349006731E-31, 1.000000000000000000, 9.031770143711729009E-17 ) ) ;
#150 = CARTESIAN_POINT ( 'NONE',  ( 4.504848348691876103E-14, 2.628999999999998227, 12.90239847074339963 ) ) ;
#151 = PERSON_AND_ORGANIZATION ( #102, #66 ) ;
#152 = PERSON_AND_ORGANIZATION ( #102, #66 ) ;
#153 = ORIENTED_EDGE ( 'NONE', *, *, #143, .F. ) ;
#154 = EDGE_LOOP ( 'NONE', ( #21 ) ) ;
#155 = AXIS2_PLACEMENT_3D ( 'NONE', #186, #13, #149 ) ;
#156 = APPROVAL_ROLE ( '' ) ;
#157 = MANIFOLD_SOLID_BREP ( 'Corps-Déplacer/Copier1[1]', #148 ) ;
#158 = DIRECTION ( 'NONE',  ( 3.153425691349006731E-31, 1.000000000000000000, 9.031770143711729009E-17 ) ) ;
#159 = CARTESIAN_POINT ( 'NONE',  ( 2.779219145719134403E-13, -7.189289034394536528E-15, 79.60000000000000853 ) ) ;
#160 = FACE_OUTER_BOUND ( 'NONE', #35, .T. ) ;
#161 = PLANE ( 'NONE',  #121 ) ;
#162 = ADVANCED_FACE ( 'NONE', ( #122, #42 ), #127, .T. ) ;
#163 = CONICAL_SURFACE ( 'NONE', #51, 2.398059892324148734, 0.5235987755982978165 ) ;
#164 = DIRECTION ( 'NONE',  ( -3.491481338843133355E-15, 9.031770143711729009E-17, -1.000000000000000000 ) ) ;
#165 = VERTEX_POINT ( 'NONE', #31 ) ;
#166 = APPROVAL ( #100, 'UNSPECIFIED' ) ;
#167 = CARTESIAN_POINT ( 'NONE',  ( 4.504848348691876103E-14, -1.165314972903321200E-15, 12.90239847074339963 ) ) ;
#168 = LOCAL_TIME ( 11, 3, 44.00000000000000000, #136 ) ;
#169 = APPLICATION_PROTOCOL_DEFINITION ( 'international standard', 'config_control_design', 1994, #126 ) ;
#170 = AXIS2_PLACEMENT_3D ( 'NONE', #27, #30, #69 ) ;
#171 = PERSON_AND_ORGANIZATION ( #102, #66 ) ;
#172 = PRODUCT_DEFINITION ( 'UNKNOWN', '', #8, #49 ) ;
#173 = SHAPE_DEFINITION_REPRESENTATION ( #84, #205 ) ;
#174 = EDGE_LOOP ( 'NONE', ( #61 ) ) ;
#175 = COORDINATED_UNIVERSAL_TIME_OFFSET ( 1, 0, .AHEAD. ) ;
#176 = ADVANCED_FACE ( 'NONE', ( #196, #238 ), #4, .T. ) ;
#177 = EDGE_LOOP ( 'NONE', ( #140 ) ) ;
#178 = EDGE_LOOP ( 'NONE', ( #75 ) ) ;
#179 = AXIS2_PLACEMENT_3D ( 'NONE', #159, #219, #85 ) ;
#180 = FACE_OUTER_BOUND ( 'NONE', #18, .T. ) ;
#181 = ADVANCED_FACE ( 'NONE', ( #72 ), #224, .T. ) ;
#182 = DIRECTION ( 'NONE',  ( -2.344228155967734765E-30, 1.000000000000000000, -6.598415656054822042E-16 ) ) ;
#183 = CARTESIAN_POINT ( 'NONE',  ( 4.504848348691876103E-14, 2.628999999999998227, 12.90239847074339963 ) ) ;
#184 = DIRECTION ( 'NONE',  ( 1.796019197359437034E-30, -1.000000000000000000, 5.144003427366247195E-16 ) ) ;
#185 = AXIS2_PLACEMENT_3D ( 'NONE', #220, #63, #103 ) ;
#186 = CARTESIAN_POINT ( 'NONE',  ( 4.504848348691875472E-14, 2.628999999999998227, 12.90239847074339785 ) ) ;
#187 = PERSON_AND_ORGANIZATION_ROLE ( 'design_owner' ) ;
#188 = EDGE_LOOP ( 'NONE', ( #45 ) ) ;
#189 = PERSON_AND_ORGANIZATION_ROLE ( 'design_supplier' ) ;
#190 = CIRCLE ( 'NONE', #218, 2.628999999999991566 ) ;
#191 = ORIENTED_EDGE ( 'NONE', *, *, #143, .T. ) ;
#192 = CALENDAR_DATE ( 2021, 26, 11 ) ;
#193 = APPROVAL_ROLE ( '' ) ;
#194 = EDGE_CURVE ( 'NONE', #111, #111, #78, .T. ) ;
#195 = APPROVAL_PERSON_ORGANIZATION ( #3, #212, #156 ) ;
#196 = FACE_BOUND ( 'NONE', #98, .T. ) ;
#197 = ORIENTED_EDGE ( 'NONE', *, *, #104, .T. ) ;
#198 = DIRECTION ( 'NONE',  ( 0.0000000000000000000, 1.000000000000000000, 0.0000000000000000000 ) ) ;
#199 = CC_DESIGN_SECURITY_CLASSIFICATION ( #243, ( #8 ) ) ;
#200 = EDGE_CURVE ( 'NONE', #209, #209, #28, .T. ) ;
#201 = DIRECTION ( 'NONE',  ( -3.491481338843133355E-15, -5.144003427366247195E-16, -1.000000000000000000 ) ) ;
#202 = CYLINDRICAL_SURFACE ( 'NONE', #39, 1.999999999999993561 ) ;
#203 = LOCAL_TIME ( 11, 3, 44.00000000000000000, #115 ) ;
#204 = CARTESIAN_POINT ( 'NONE',  ( 2.779219145719134403E-13, 1.999999999999988010, 79.60000000000000853 ) ) ;
#205 = ADVANCED_BREP_SHAPE_REPRESENTATION ( '321429', ( #157, #67, #105 ), #225 ) ;
#206 = CARTESIAN_POINT ( 'NONE',  ( 0.0000000000000000000, 2.398059892324148734, 0.0000000000000000000 ) ) ;
#207 = VERTEX_POINT ( 'NONE', #29 ) ;
#208 = ADVANCED_FACE ( 'NONE', ( #128, #109 ), #163, .T. ) ;
#209 = VERTEX_POINT ( 'NONE', #206 ) ;
#210 = CALENDAR_DATE ( 2021, 26, 11 ) ;
#211 = APPROVAL_ROLE ( '' ) ;
#212 = APPROVAL ( #34, 'UNSPECIFIED' ) ;
#213 = CALENDAR_DATE ( 2021, 26, 11 ) ;
#214 = CIRCLE ( 'NONE', #110, 1.999999999999991784 ) ;
#215 = CC_DESIGN_PERSON_AND_ORGANIZATION_ASSIGNMENT ( #151, #118, ( #8 ) ) ;
#216 = PERSON_AND_ORGANIZATION_ROLE ( 'creator' ) ;
#217 = ORIENTED_EDGE ( 'NONE', *, *, #194, .F. ) ;
#218 = AXIS2_PLACEMENT_3D ( 'NONE', #10, #7, #182 ) ;
#219 = DIRECTION ( 'NONE',  ( -3.491481338843133355E-15, 9.031770143711729009E-17, -1.000000000000000000 ) ) ;
#220 = CARTESIAN_POINT ( 'NONE',  ( 2.793185071074506684E-13, -7.225416114969383207E-15, 80.00000000000000000 ) ) ;
#221 = DIRECTION ( 'NONE',  ( 0.0000000000000000000, 1.000000000000000000, 0.0000000000000000000 ) ) ;
#222 = AXIS2_PLACEMENT_3D ( 'NONE', #223, #41, #68 ) ;
#223 = CARTESIAN_POINT ( 'NONE',  ( 2.793185071074506684E-13, -7.225416114969383207E-15, 80.00000000000000000 ) ) ;
#224 = PLANE ( 'NONE',  #155 ) ;
#225 =( GEOMETRIC_REPRESENTATION_CONTEXT ( 3 ) GLOBAL_UNCERTAINTY_ASSIGNED_CONTEXT ( ( #107 ) ) GLOBAL_UNIT_ASSIGNED_CONTEXT ( ( #93, #146, #50 ) ) REPRESENTATION_CONTEXT ( 'NONE', 'WORKASPACE' ) );
#226 = CARTESIAN_POINT ( 'NONE',  ( 4.306961603031875773E-30, 6.345451428038174305E-31, 1.233562830514495432E-15 ) ) ;
#227 = CARTESIAN_POINT ( 'NONE',  ( 2.793185071074506684E-13, 1.599999999999987876, 80.00000000000000000 ) ) ;
#228 = EDGE_CURVE ( 'NONE', #165, #165, #88, .T. ) ;
#229 = DIRECTION ( 'NONE',  ( 0.0000000000000000000, 0.0000000000000000000, 1.000000000000000000 ) ) ;
#230 = CLOSED_SHELL ( 'NONE', ( #44, #162, #208, #81 ) ) ;
#231 = APPLICATION_CONTEXT ( 'configuration controlled 3d designs of mechanical parts and assemblies' ) ;
#232 = PERSON_AND_ORGANIZATION_ROLE ( 'classification_officer' ) ;
#233 = CC_DESIGN_PERSON_AND_ORGANIZATION_ASSIGNMENT ( #171, #216, ( #172 ) ) ;
#234 = DATE_AND_TIME ( #213, #71 ) ;
#235 = ORIENTED_EDGE ( 'NONE', *, *, #104, .F. ) ;
#236 = SECURITY_CLASSIFICATION_LEVEL ( 'unclassified' ) ;
#237 = EDGE_LOOP ( 'NONE', ( #217 ) ) ;
#238 = FACE_OUTER_BOUND ( 'NONE', #237, .T. ) ;
#239 = CARTESIAN_POINT ( 'NONE',  ( 4.504848348691875472E-14, 6.636998195474905210E-15, 12.90239847074339785 ) ) ;
#240 = CC_DESIGN_APPROVAL ( #166, ( #8 ) ) ;
#241 = PLANE ( 'NONE',  #185 ) ;
#242 = DIRECTION ( 'NONE',  ( -3.491481338843133355E-15, 9.031770143711729009E-17, -1.000000000000000000 ) ) ;
#243 = SECURITY_CLASSIFICATION ( '', '', #236 ) ;
ENDSEC;
END-ISO-10303-21;
