ISO-10303-21;
HEADER;
FILE_DESCRIPTION (( 'STEP AP203' ),
    '1' );
FILE_NAME ('321428.step',
    '2021-11-26T10:03:43',
    ( '' ),
    ( '' ),
    'SwSTEP 2.0',
    'SolidWorks 2019',
    '' );
FILE_SCHEMA (( 'CONFIG_CONTROL_DESIGN' ));
ENDSEC;

DATA;
#1 = FACE_BOUND ( 'NONE', #192, .T. ) ;
#2 = FACE_OUTER_BOUND ( 'NONE', #80, .T. ) ;
#3 = CARTESIAN_POINT ( 'NONE',  ( 4.885231259955590439E-14, -1.263712492114123682E-15, 13.99185842870425134 ) ) ;
#4 = ORIENTED_EDGE ( 'NONE', *, *, #142, .F. ) ;
#5 = PLANE ( 'NONE',  #13 ) ;
#6 = EDGE_CURVE ( 'NONE', #112, #112, #186, .T. ) ;
#7 = DIRECTION ( 'NONE',  ( 1.794240881552477172E-30, -1.000000000000000000, 5.138910128464214325E-16 ) ) ;
#8 = CIRCLE ( 'NONE', #204, 1.599999999999994982 ) ;
#9 = MECHANICAL_CONTEXT ( 'NONE', #132, 'mechanical' ) ;
#10 = PERSON_AND_ORGANIZATION_ROLE ( 'creator' ) ;
#11 = APPROVAL_ROLE ( '' ) ;
#12 = APPROVAL_ROLE ( '' ) ;
#13 = AXIS2_PLACEMENT_3D ( 'NONE', #174, #155, #7 ) ;
#14 = ORIENTED_EDGE ( 'NONE', *, *, #6, .T. ) ;
#15 = EDGE_LOOP ( 'NONE', ( #188 ) ) ;
#16 = AXIS2_PLACEMENT_3D ( 'NONE', #104, #171, #228 ) ;
#17 = FACE_OUTER_BOUND ( 'NONE', #219, .T. ) ;
#18 = EDGE_CURVE ( 'NONE', #175, #175, #213, .T. ) ;
#19 = ORIENTED_EDGE ( 'NONE', *, *, #227, .T. ) ;
#20 = CARTESIAN_POINT ( 'NONE',  ( 0.0000000000000000000, 0.0000000000000000000, 0.0000000000000000000 ) ) ;
#21 = AXIS2_PLACEMENT_3D ( 'NONE', #75, #138, #45 ) ;
#22 = CARTESIAN_POINT ( 'NONE',  ( 1.396592535537253342E-15, 2.623999999999998778, 0.3999999999999999667 ) ) ;
#23 =( NAMED_UNIT ( * ) PLANE_ANGLE_UNIT ( ) SI_UNIT ( $, .RADIAN. ) );
#24 = EDGE_CURVE ( 'NONE', #26, #26, #62, .T. ) ;
#25 = CARTESIAN_POINT ( 'NONE',  ( 4.293725890811557733E-30, 6.319687641936983993E-31, 1.229771971868605102E-15 ) ) ;
#26 = VERTEX_POINT ( 'NONE', #22 ) ;
#27 = PERSON_AND_ORGANIZATION ( #129, #125 ) ;
#28 = AXIS2_PLACEMENT_3D ( 'NONE', #154, #232, #44 ) ;
#29 = COORDINATED_UNIVERSAL_TIME_OFFSET ( 1, 0, .AHEAD. ) ;
#30 = APPROVAL_DATE_TIME ( #48, #123 ) ;
#31 = DATE_AND_TIME ( #98, #241 ) ;
#32 = EDGE_LOOP ( 'NONE', ( #163 ) ) ;
#33 = CARTESIAN_POINT ( 'NONE',  ( 2.779219145719134403E-13, -7.189289034394536528E-15, 79.60000000000000853 ) ) ;
#34 = FACE_OUTER_BOUND ( 'NONE', #238, .T. ) ;
#35 = EDGE_LOOP ( 'NONE', ( #19 ) ) ;
#36 = FACE_OUTER_BOUND ( 'NONE', #242, .T. ) ;
#37 = DIRECTION ( 'NONE',  ( 0.0000000000000000000, 1.000000000000000000, 0.0000000000000000000 ) ) ;
#38 = CLOSED_SHELL ( 'NONE', ( #114, #158, #173, #194, #211 ) ) ;
#39 = CC_DESIGN_SECURITY_CLASSIFICATION ( #89, ( #180 ) ) ;
#40 = FACE_OUTER_BOUND ( 'NONE', #35, .T. ) ;
#41 = CC_DESIGN_PERSON_AND_ORGANIZATION_ASSIGNMENT ( #50, #197, ( #89 ) ) ;
#42 = CC_DESIGN_PERSON_AND_ORGANIZATION_ASSIGNMENT ( #162, #10, ( #215 ) ) ;
#43 = PLANE ( 'NONE',  #46 ) ;
#44 = DIRECTION ( 'NONE',  ( 0.0000000000000000000, 1.000000000000000000, 0.0000000000000000000 ) ) ;
#45 = DIRECTION ( 'NONE',  ( 1.000000000000000000, 0.0000000000000000000, 0.0000000000000000000 ) ) ;
#46 = AXIS2_PLACEMENT_3D ( 'NONE', #76, #61, #233 ) ;
#47 = CALENDAR_DATE ( 2021, 26, 11 ) ;
#48 = DATE_AND_TIME ( #115, #77 ) ;
#49 = ORIENTED_EDGE ( 'NONE', *, *, #94, .F. ) ;
#50 = PERSON_AND_ORGANIZATION ( #129, #125 ) ;
#51 = DESIGN_CONTEXT ( 'detailed design', #236, 'design' ) ;
#52 = DIRECTION ( 'NONE',  ( -3.491481338843133355E-15, -5.138910128464214325E-16, -1.000000000000000000 ) ) ;
#53 = ADVANCED_FACE ( 'NONE', ( #169, #17 ), #146, .T. ) ;
#54 = ORIENTED_EDGE ( 'NONE', *, *, #225, .T. ) ;
#55 = CIRCLE ( 'NONE', #88, 2.393059892324148841 ) ;
#56 = EDGE_LOOP ( 'NONE', ( #14 ) ) ;
#57 = CARTESIAN_POINT ( 'NONE',  ( 0.0000000000000000000, 0.0000000000000000000, 0.0000000000000000000 ) ) ;
#58 = CC_DESIGN_DATE_AND_TIME_ASSIGNMENT ( #200, #217, ( #215 ) ) ;
#59 = DIRECTION ( 'NONE',  ( -1.794240881552477172E-30, 1.000000000000000000, -5.138910128464214325E-16 ) ) ;
#60 = DIRECTION ( 'NONE',  ( -1.794240881552477172E-30, 1.000000000000000000, -5.138910128464214325E-16 ) ) ;
#61 = DIRECTION ( 'NONE',  ( -3.491481338843133355E-15, 9.031770143711729009E-17, -1.000000000000000000 ) ) ;
#62 = CIRCLE ( 'NONE', #101, 2.623999999999998778 ) ;
#63 = DIRECTION ( 'NONE',  ( -3.491481338843133355E-15, -5.138910128464214325E-16, -1.000000000000000000 ) ) ;
#64 = APPROVAL_STATUS ( 'not_yet_approved' ) ;
#65 = APPROVAL_DATE_TIME ( #237, #78 ) ;
#66 = AXIS2_PLACEMENT_3D ( 'NONE', #20, #52, #206 ) ;
#67 = EDGE_LOOP ( 'NONE', ( #49 ) ) ;
#68 = COORDINATED_UNIVERSAL_TIME_OFFSET ( 1, 0, .AHEAD. ) ;
#69 = EDGE_LOOP ( 'NONE', ( #135 ) ) ;
#70 = DIRECTION ( 'NONE',  ( -3.491481338843133355E-15, -5.138910128464214325E-16, -1.000000000000000000 ) ) ;
#71 = CARTESIAN_POINT ( 'NONE',  ( 1.396592535537257878E-15, 2.055564051385692484E-16, 0.4000000000000012990 ) ) ;
#72 = DIRECTION ( 'NONE',  ( -3.491481338843133355E-15, 9.031770143711729009E-17, -1.000000000000000000 ) ) ;
#73 = FACE_OUTER_BOUND ( 'NONE', #120, .T. ) ;
#74 = CARTESIAN_POINT ( 'NONE',  ( 2.779219145719134403E-13, 1.999999999999988010, 79.60000000000000853 ) ) ;
#75 = CARTESIAN_POINT ( 'NONE',  ( 0.0000000000000000000, 0.0000000000000000000, 0.0000000000000000000 ) ) ;
#76 = CARTESIAN_POINT ( 'NONE',  ( 4.507872060228152977E-14, 2.623999999999998334, 12.91105872478124184 ) ) ;
#77 = LOCAL_TIME ( 11, 3, 43.00000000000000000, #134 ) ;
#78 = APPROVAL ( #79, 'UNSPECIFIED' ) ;
#79 = APPROVAL_STATUS ( 'not_yet_approved' ) ;
#80 = EDGE_LOOP ( 'NONE', ( #159 ) ) ;
#81 = CIRCLE ( 'NONE', #208, 1.999999999999991784 ) ;
#82 = PERSON_AND_ORGANIZATION ( #129, #125 ) ;
#83 = EDGE_LOOP ( 'NONE', ( #54 ) ) ;
#84 = ORIENTED_EDGE ( 'NONE', *, *, #227, .F. ) ;
#85 = CONICAL_SURFACE ( 'NONE', #137, 2.623999999999999666, 0.5235987755982924874 ) ;
#86 = DIRECTION ( 'NONE',  ( -3.491481338843133355E-15, -5.138910128464214325E-16, -1.000000000000000000 ) ) ;
#87 = CYLINDRICAL_SURFACE ( 'NONE', #141, 1.999999999999993561 ) ;
#88 = AXIS2_PLACEMENT_3D ( 'NONE', #25, #63, #60 ) ;
#89 = SECURITY_CLASSIFICATION ( '', '', #183 ) ;
#90 = CARTESIAN_POINT ( 'NONE',  ( 2.793185071074506684E-13, 1.599999999999987876, 80.00000000000000000 ) ) ;
#91 = CONICAL_SURFACE ( 'NONE', #16, 2.393059892324148841, 0.5235987755982978165 ) ;
#92 = VERTEX_POINT ( 'NONE', #90 ) ;
#93 = APPROVAL_ROLE ( '' ) ;
#94 = EDGE_CURVE ( 'NONE', #92, #92, #8, .T. ) ;
#95 = AXIS2_PLACEMENT_3D ( 'NONE', #210, #70, #102 ) ;
#96 = AXIS2_PLACEMENT_3D ( 'NONE', #122, #224, #189 ) ;
#97 = CC_DESIGN_APPROVAL ( #123, ( #180 ) ) ;
#98 = CALENDAR_DATE ( 2021, 26, 11 ) ;
#99 = EDGE_LOOP ( 'NONE', ( #119 ) ) ;
#100 = PERSON_AND_ORGANIZATION_ROLE ( 'design_supplier' ) ;
#101 = AXIS2_PLACEMENT_3D ( 'NONE', #71, #86, #165 ) ;
#102 = DIRECTION ( 'NONE',  ( -2.348695054130782941E-30, 1.000000000000000000, -6.610988856618950616E-16 ) ) ;
#103 = CARTESIAN_POINT ( 'NONE',  ( 4.507872060228152977E-14, -1.166097147141880496E-15, 12.91105872478124361 ) ) ;
#104 = CARTESIAN_POINT ( 'NONE',  ( 4.293725890811557733E-30, 6.319687641936983993E-31, 1.229771971868605102E-15 ) ) ;
#105 = DIRECTION ( 'NONE',  ( 0.0000000000000000000, 1.000000000000000000, 0.0000000000000000000 ) ) ;
#106 = ORIENTED_EDGE ( 'NONE', *, *, #24, .F. ) ;
#107 = CARTESIAN_POINT ( 'NONE',  ( 4.507872060228152977E-14, 2.623999999999998334, 12.91105872478124361 ) ) ;
#108 = VERTEX_POINT ( 'NONE', #153 ) ;
#109 = CC_DESIGN_PERSON_AND_ORGANIZATION_ASSIGNMENT ( #82, #220, ( #180 ) ) ;
#110 = PLANE ( 'NONE',  #166 ) ;
#111 = APPROVAL_PERSON_ORGANIZATION ( #203, #178, #12 ) ;
#112 = VERTEX_POINT ( 'NONE', #74 ) ;
#113 = DIRECTION ( 'NONE',  ( -3.491481338843133355E-15, -5.138910128464214325E-16, -1.000000000000000000 ) ) ;
#114 = ADVANCED_FACE ( 'NONE', ( #243 ), #223, .T. ) ;
#115 = CALENDAR_DATE ( 2021, 26, 11 ) ;
#116 = CONICAL_SURFACE ( 'NONE', #239, 1.999999999999995337, 0.7853981633974516097 ) ;
#117 = APPROVAL_DATE_TIME ( #182, #178 ) ;
#118 = CALENDAR_DATE ( 2021, 26, 11 ) ;
#119 = ORIENTED_EDGE ( 'NONE', *, *, #18, .T. ) ;
#120 = EDGE_LOOP ( 'NONE', ( #121 ) ) ;
#121 = ORIENTED_EDGE ( 'NONE', *, *, #6, .F. ) ;
#122 = CARTESIAN_POINT ( 'NONE',  ( 2.793185071074506684E-13, -7.225416114969383207E-15, 80.00000000000000000 ) ) ;
#123 = APPROVAL ( #64, 'UNSPECIFIED' ) ;
#124 = FACE_BOUND ( 'NONE', #32, .T. ) ;
#125 = ORGANIZATION ( 'UNSPECIFIED', 'UNSPECIFIED', '' ) ;
#126 = DIRECTION ( 'NONE',  ( -3.491481338843133355E-15, 9.031770143711729009E-17, -1.000000000000000000 ) ) ;
#127 = FACE_OUTER_BOUND ( 'NONE', #56, .T. ) ;
#128 = DIRECTION ( 'NONE',  ( -3.491481338843133355E-15, 9.031770143711729009E-17, -1.000000000000000000 ) ) ;
#129 = PERSON ( 'UNSPECIFIED', 'UNSPECIFIED', 'UNSPECIFIED', ('UNSPECIFIED'), ('UNSPECIFIED'), ('UNSPECIFIED') ) ;
#130 = APPLICATION_PROTOCOL_DEFINITION ( 'international standard', 'config_control_design', 1994, #132 ) ;
#131 =( NAMED_UNIT ( * ) SI_UNIT ( $, .STERADIAN. ) SOLID_ANGLE_UNIT ( ) );
#132 = APPLICATION_CONTEXT ( 'configuration controlled 3d designs of mechanical parts and assemblies' ) ;
#133 = FACE_OUTER_BOUND ( 'NONE', #83, .T. ) ;
#134 = COORDINATED_UNIVERSAL_TIME_OFFSET ( 1, 0, .AHEAD. ) ;
#135 = ORIENTED_EDGE ( 'NONE', *, *, #225, .F. ) ;
#136 = APPLICATION_PROTOCOL_DEFINITION ( 'international standard', 'config_control_design', 1994, #236 ) ;
#137 = AXIS2_PLACEMENT_3D ( 'NONE', #103, #187, #168 ) ;
#138 = DIRECTION ( 'NONE',  ( 0.0000000000000000000, 0.0000000000000000000, 1.000000000000000000 ) ) ;
#139 = PRODUCT ( '321428', '321428', '', ( #9 ) ) ;
#140 = COORDINATED_UNIVERSAL_TIME_OFFSET ( 1, 0, .AHEAD. ) ;
#141 = AXIS2_PLACEMENT_3D ( 'NONE', #57, #128, #212 ) ;
#142 = EDGE_CURVE ( 'NONE', #193, #193, #81, .T. ) ;
#143 = DIRECTION ( 'NONE',  ( -3.491481338843133355E-15, 9.031770143711729009E-17, -1.000000000000000000 ) ) ;
#144 = CARTESIAN_POINT ( 'NONE',  ( 2.793185071074506684E-13, -7.225416114969383207E-15, 80.00000000000000000 ) ) ;
#145 = MANIFOLD_SOLID_BREP ( 'Corps-Déplacer/Copier1[2]', #170 ) ;
#146 = CYLINDRICAL_SURFACE ( 'NONE', #66, 2.623999999999995225 ) ;
#147 = PRODUCT_RELATED_PRODUCT_CATEGORY ( 'detail', '', ( #139 ) ) ;
#148 = MANIFOLD_SOLID_BREP ( 'Corps-Déplacer/Copier1[1]', #38 ) ;
#149 = FACE_OUTER_BOUND ( 'NONE', #15, .T. ) ;
#150 = CARTESIAN_POINT ( 'NONE',  ( 2.779219145719134403E-13, -7.189289034394536528E-15, 79.60000000000000853 ) ) ;
#151 = CC_DESIGN_PERSON_AND_ORGANIZATION_ASSIGNMENT ( #235, #100, ( #180 ) ) ;
#152 = CIRCLE ( 'NONE', #28, 2.623999999999999666 ) ;
#153 = CARTESIAN_POINT ( 'NONE',  ( 4.507872060228152977E-14, 2.623999999999998334, 12.91105872478124361 ) ) ;
#154 = CARTESIAN_POINT ( 'NONE',  ( 4.507872060228152977E-14, -1.166097147141880496E-15, 12.91105872478124361 ) ) ;
#155 = DIRECTION ( 'NONE',  ( 3.491481338843133355E-15, 5.138910128464214325E-16, 1.000000000000000000 ) ) ;
#156 = PERSON_AND_ORGANIZATION ( #129, #125 ) ;
#157 = CALENDAR_DATE ( 2021, 26, 11 ) ;
#158 = ADVANCED_FACE ( 'NONE', ( #1, #73 ), #116, .T. ) ;
#159 = ORIENTED_EDGE ( 'NONE', *, *, #18, .F. ) ;
#160 = AXIS2_PLACEMENT_3D ( 'NONE', #33, #126, #167 ) ;
#161 = CC_DESIGN_APPROVAL ( #78, ( #89 ) ) ;
#162 = PERSON_AND_ORGANIZATION ( #129, #125 ) ;
#163 = ORIENTED_EDGE ( 'NONE', *, *, #142, .T. ) ;
#164 = ADVANCED_FACE ( 'NONE', ( #149, #226 ), #91, .T. ) ;
#165 = DIRECTION ( 'NONE',  ( -1.761521290598082564E-30, 1.000000000000000000, -5.164835044233541395E-16 ) ) ;
#166 = AXIS2_PLACEMENT_3D ( 'NONE', #177, #113, #59 ) ;
#167 = DIRECTION ( 'NONE',  ( 0.0000000000000000000, 1.000000000000000000, 0.0000000000000000000 ) ) ;
#168 = DIRECTION ( 'NONE',  ( 0.0000000000000000000, 1.000000000000000000, 0.0000000000000000000 ) ) ;
#169 = FACE_OUTER_BOUND ( 'NONE', #99, .T. ) ;
#170 = CLOSED_SHELL ( 'NONE', ( #207, #53, #164, #240 ) ) ;
#171 = DIRECTION ( 'NONE',  ( 3.491481338843133355E-15, 5.138910128464214325E-16, 1.000000000000000000 ) ) ;
#172 = CARTESIAN_POINT ( 'NONE',  ( 6.842277657836020854E-46, 2.393059892324148841, 0.0000000000000000000 ) ) ;
#173 = ADVANCED_FACE ( 'NONE', ( #127, #36 ), #87, .T. ) ;
#174 = CARTESIAN_POINT ( 'NONE',  ( 4.507872060228152977E-14, 6.634877044997459066E-15, 12.91105872478124184 ) ) ;
#175 = VERTEX_POINT ( 'NONE', #107 ) ;
#176 = LOCAL_TIME ( 11, 3, 43.00000000000000000, #140 ) ;
#177 = CARTESIAN_POINT ( 'NONE',  ( -2.146862945405778866E-30, 2.393059892324148841, -6.148859859343025511E-16 ) ) ;
#178 = APPROVAL ( #216, 'UNSPECIFIED' ) ;
#179 = COORDINATED_UNIVERSAL_TIME_OFFSET ( 1, 0, .AHEAD. ) ;
#180 = PRODUCT_DEFINITION_FORMATION_WITH_SPECIFIED_SOURCE ( 'ANY', '', #139, .NOT_KNOWN. ) ;
#181 = PERSON_AND_ORGANIZATION_ROLE ( 'design_owner' ) ;
#182 = DATE_AND_TIME ( #118, #190 ) ;
#183 = SECURITY_CLASSIFICATION_LEVEL ( 'unclassified' ) ;
#184 = PRODUCT_DEFINITION_SHAPE ( 'NONE', 'NONE',  #215 ) ;
#185 = DIRECTION ( 'NONE',  ( 0.0000000000000000000, 1.000000000000000000, 0.0000000000000000000 ) ) ;
#186 = CIRCLE ( 'NONE', #160, 1.999999999999995337 ) ;
#187 = DIRECTION ( 'NONE',  ( -3.491481338843133355E-15, 9.031770143711729009E-17, -1.000000000000000000 ) ) ;
#188 = ORIENTED_EDGE ( 'NONE', *, *, #24, .T. ) ;
#189 = DIRECTION ( 'NONE',  ( -3.153425691349006731E-31, -1.000000000000000000, -9.031770143711729009E-17 ) ) ;
#190 = LOCAL_TIME ( 11, 3, 43.00000000000000000, #68 ) ;
#191 = APPROVAL_PERSON_ORGANIZATION ( #156, #123, #11 ) ;
#192 = EDGE_LOOP ( 'NONE', ( #201 ) ) ;
#193 = VERTEX_POINT ( 'NONE', #231 ) ;
#194 = ADVANCED_FACE ( 'NONE', ( #124, #34 ), #85, .T. ) ;
#195 = DATE_TIME_ROLE ( 'classification_date' ) ;
#196 = ADVANCED_BREP_SHAPE_REPRESENTATION ( '321428', ( #148, #145, #21 ), #230 ) ;
#197 = PERSON_AND_ORGANIZATION_ROLE ( 'classification_officer' ) ;
#198 = CC_DESIGN_PERSON_AND_ORGANIZATION_ASSIGNMENT ( #218, #181, ( #139 ) ) ;
#199 = SHAPE_DEFINITION_REPRESENTATION ( #184, #196 ) ;
#200 = DATE_AND_TIME ( #47, #176 ) ;
#201 = ORIENTED_EDGE ( 'NONE', *, *, #94, .T. ) ;
#202 = CC_DESIGN_DATE_AND_TIME_ASSIGNMENT ( #31, #195, ( #89 ) ) ;
#203 = PERSON_AND_ORGANIZATION ( #129, #125 ) ;
#204 = AXIS2_PLACEMENT_3D ( 'NONE', #144, #143, #37 ) ;
#205 = DIRECTION ( 'NONE',  ( -3.491481338843133355E-15, 9.031770143711729009E-17, -1.000000000000000000 ) ) ;
#206 = DIRECTION ( 'NONE',  ( -1.794240881552477172E-30, 1.000000000000000000, -5.138910128464214325E-16 ) ) ;
#207 = ADVANCED_FACE ( 'NONE', ( #2 ), #5, .T. ) ;
#208 = AXIS2_PLACEMENT_3D ( 'NONE', #3, #205, #185 ) ;
#209 = CC_DESIGN_APPROVAL ( #178, ( #215 ) ) ;
#210 = CARTESIAN_POINT ( 'NONE',  ( 4.507872060228153608E-14, 6.634877044997459854E-15, 12.91105872478124539 ) ) ;
#211 = ADVANCED_FACE ( 'NONE', ( #40 ), #43, .T. ) ;
#212 = DIRECTION ( 'NONE',  ( 3.153425691349006731E-31, 1.000000000000000000, 9.031770143711729009E-17 ) ) ;
#213 = CIRCLE ( 'NONE', #95, 2.623999999999991672 ) ;
#214 = VERTEX_POINT ( 'NONE', #172 ) ;
#215 = PRODUCT_DEFINITION ( 'UNKNOWN', '', #180, #51 ) ;
#216 = APPROVAL_STATUS ( 'not_yet_approved' ) ;
#217 = DATE_TIME_ROLE ( 'creation_date' ) ;
#218 = PERSON_AND_ORGANIZATION ( #129, #125 ) ;
#219 = EDGE_LOOP ( 'NONE', ( #106 ) ) ;
#220 = PERSON_AND_ORGANIZATION_ROLE ( 'creator' ) ;
#221 = UNCERTAINTY_MEASURE_WITH_UNIT (LENGTH_MEASURE( 1.000000000000000082E-05 ), #229, 'distance_accuracy_value', 'NONE');
#222 = APPROVAL_PERSON_ORGANIZATION ( #27, #78, #93 ) ;
#223 = PLANE ( 'NONE',  #96 ) ;
#224 = DIRECTION ( 'NONE',  ( 3.491481338843133355E-15, -9.031770143711729009E-17, 1.000000000000000000 ) ) ;
#225 = EDGE_CURVE ( 'NONE', #214, #214, #55, .T. ) ;
#226 = FACE_BOUND ( 'NONE', #69, .T. ) ;
#227 = EDGE_CURVE ( 'NONE', #108, #108, #152, .T. ) ;
#228 = DIRECTION ( 'NONE',  ( 1.794240881552476822E-30, -1.000000000000000000, 5.138910128464214325E-16 ) ) ;
#229 =( LENGTH_UNIT ( ) NAMED_UNIT ( * ) SI_UNIT ( .MILLI., .METRE. ) );
#230 =( GEOMETRIC_REPRESENTATION_CONTEXT ( 3 ) GLOBAL_UNCERTAINTY_ASSIGNED_CONTEXT ( ( #221 ) ) GLOBAL_UNIT_ASSIGNED_CONTEXT ( ( #229, #23, #131 ) ) REPRESENTATION_CONTEXT ( 'NONE', 'WORKASPACE' ) );
#231 = CARTESIAN_POINT ( 'NONE',  ( 4.885231259955590439E-14, 1.999999999999990452, 13.99185842870425134 ) ) ;
#232 = DIRECTION ( 'NONE',  ( -3.491481338843133355E-15, 9.031770143711729009E-17, -1.000000000000000000 ) ) ;
#233 = DIRECTION ( 'NONE',  ( 3.153425691349006731E-31, 1.000000000000000000, 9.031770143711729009E-17 ) ) ;
#234 = LOCAL_TIME ( 11, 3, 43.00000000000000000, #179 ) ;
#235 = PERSON_AND_ORGANIZATION ( #129, #125 ) ;
#236 = APPLICATION_CONTEXT ( 'configuration controlled 3d designs of mechanical parts and assemblies' ) ;
#237 = DATE_AND_TIME ( #157, #234 ) ;
#238 = EDGE_LOOP ( 'NONE', ( #84 ) ) ;
#239 = AXIS2_PLACEMENT_3D ( 'NONE', #150, #72, #105 ) ;
#240 = ADVANCED_FACE ( 'NONE', ( #133 ), #110, .T. ) ;
#241 = LOCAL_TIME ( 11, 3, 43.00000000000000000, #29 ) ;
#242 = EDGE_LOOP ( 'NONE', ( #4 ) ) ;
#243 = FACE_OUTER_BOUND ( 'NONE', #67, .T. ) ;
ENDSEC;
END-ISO-10303-21;
