ISO-10303-21;
HEADER;
FILE_DESCRIPTION (( 'STEP AP203' ),
    '1' );
FILE_NAME ('321427.step',
    '2021-11-26T10:03:42',
    ( '' ),
    ( '' ),
    'SwSTEP 2.0',
    'SolidWorks 2019',
    '' );
FILE_SCHEMA (( 'CONFIG_CONTROL_DESIGN' ));
ENDSEC;

DATA;
#1 = PERSON_AND_ORGANIZATION_ROLE ( 'creator' ) ;
#2 = DIRECTION ( 'NONE',  ( 0.0000000000000000000, 1.000000000000000000, 0.0000000000000000000 ) ) ;
#3 = SECURITY_CLASSIFICATION_LEVEL ( 'unclassified' ) ;
#4 = VERTEX_POINT ( 'NONE', #95 ) ;
#5 =( LENGTH_UNIT ( ) NAMED_UNIT ( * ) SI_UNIT ( .MILLI., .METRE. ) );
#6 = ADVANCED_FACE ( 'NONE', ( #192, #65 ), #98, .T. ) ;
#7 = MANIFOLD_SOLID_BREP ( 'Corps-Déplacer/Copier1[1]', #187 ) ;
#8 = EDGE_LOOP ( 'NONE', ( #84 ) ) ;
#9 = CARTESIAN_POINT ( 'NONE',  ( 4.510895771764430481E-14, 2.618999999999998440, 12.91971897881908760 ) ) ;
#10 = DIRECTION ( 'NONE',  ( 3.491481338843133355E-15, 5.133823657769884895E-16, 1.000000000000000000 ) ) ;
#11 = CARTESIAN_POINT ( 'NONE',  ( 4.510895771764431112E-14, 2.618999999999998440, 12.91971897881908760 ) ) ;
#12 = ADVANCED_FACE ( 'NONE', ( #141 ), #163, .T. ) ;
#13 = EDGE_LOOP ( 'NONE', ( #97 ) ) ;
#14 = AXIS2_PLACEMENT_3D ( 'NONE', #228, #25, #171 ) ;
#15 = LOCAL_TIME ( 11, 3, 42.00000000000000000, #104 ) ;
#16 = PERSON ( 'UNSPECIFIED', 'UNSPECIFIED', 'UNSPECIFIED', ('UNSPECIFIED'), ('UNSPECIFIED'), ('UNSPECIFIED') ) ;
#17 = ORIENTED_EDGE ( 'NONE', *, *, #183, .F. ) ;
#18 = PERSON_AND_ORGANIZATION_ROLE ( 'creator' ) ;
#19 = DIRECTION ( 'NONE',  ( 1.792464949801495042E-30, -1.000000000000000000, 5.133823657769884895E-16 ) ) ;
#20 = DIRECTION ( 'NONE',  ( -3.491481338843133355E-15, -5.133823657769884895E-16, -1.000000000000000000 ) ) ;
#21 = APPROVAL_ROLE ( '' ) ;
#22 = DIRECTION ( 'NONE',  ( -3.491481338843133355E-15, 9.031770143711729009E-17, -1.000000000000000000 ) ) ;
#23 = CARTESIAN_POINT ( 'NONE',  ( 4.885231259955590439E-14, 1.999999999999990452, 13.99185842870425134 ) ) ;
#24 = PERSON_AND_ORGANIZATION ( #16, #100 ) ;
#25 = DIRECTION ( 'NONE',  ( -3.491481338843133355E-15, 9.031770143711729009E-17, -1.000000000000000000 ) ) ;
#26 = AXIS2_PLACEMENT_3D ( 'NONE', #94, #63, #134 ) ;
#27 = CC_DESIGN_APPROVAL ( #105, ( #184 ) ) ;
#28 = CARTESIAN_POINT ( 'NONE',  ( 4.510895771764430481E-14, 2.618999999999998440, 12.91971897881908760 ) ) ;
#29 = MECHANICAL_CONTEXT ( 'NONE', #31, 'mechanical' ) ;
#30 = EDGE_LOOP ( 'NONE', ( #43 ) ) ;
#31 = APPLICATION_CONTEXT ( 'configuration controlled 3d designs of mechanical parts and assemblies' ) ;
#32 = ORIENTED_EDGE ( 'NONE', *, *, #199, .F. ) ;
#33 = ADVANCED_FACE ( 'NONE', ( #122 ), #101, .T. ) ;
#34 = FACE_BOUND ( 'NONE', #161, .T. ) ;
#35 = APPROVAL_STATUS ( 'not_yet_approved' ) ;
#36 = CALENDAR_DATE ( 2021, 26, 11 ) ;
#37 = ORIENTED_EDGE ( 'NONE', *, *, #85, .F. ) ;
#38 = DATE_AND_TIME ( #93, #197 ) ;
#39 = CARTESIAN_POINT ( 'NONE',  ( 1.396592535537253342E-15, 2.618999999999998884, 0.3999999999999999667 ) ) ;
#40 = CC_DESIGN_PERSON_AND_ORGANIZATION_ASSIGNMENT ( #129, #1, ( #184 ) ) ;
#41 = CARTESIAN_POINT ( 'NONE',  ( 4.280513655017769746E-30, 6.294005362439825703E-31, 1.225987837138512008E-15 ) ) ;
#42 = DIRECTION ( 'NONE',  ( -3.491481338843133355E-15, -5.133823657769884895E-16, -1.000000000000000000 ) ) ;
#43 = ORIENTED_EDGE ( 'NONE', *, *, #199, .T. ) ;
#44 = VERTEX_POINT ( 'NONE', #23 ) ;
#45 = CC_DESIGN_PERSON_AND_ORGANIZATION_ASSIGNMENT ( #140, #127, ( #68 ) ) ;
#46 = PLANE ( 'NONE',  #75 ) ;
#47 = EDGE_LOOP ( 'NONE', ( #49 ) ) ;
#48 = APPLICATION_PROTOCOL_DEFINITION ( 'international standard', 'config_control_design', 1994, #31 ) ;
#49 = ORIENTED_EDGE ( 'NONE', *, *, #229, .T. ) ;
#50 = ADVANCED_FACE ( 'NONE', ( #152 ), #164, .T. ) ;
#51 = AXIS2_PLACEMENT_3D ( 'NONE', #218, #160, #82 ) ;
#52 = ADVANCED_FACE ( 'NONE', ( #119, #217 ), #235, .T. ) ;
#53 = CIRCLE ( 'NONE', #86, 1.999999999999995337 ) ;
#54 = DIRECTION ( 'NONE',  ( 1.000000000000000000, 0.0000000000000000000, 0.0000000000000000000 ) ) ;
#55 = AXIS2_PLACEMENT_3D ( 'NONE', #66, #142, #219 ) ;
#56 = LOCAL_TIME ( 11, 3, 42.00000000000000000, #191 ) ;
#57 = DIRECTION ( 'NONE',  ( -1.792464949801495042E-30, 1.000000000000000000, -5.133823657769884895E-16 ) ) ;
#58 = CALENDAR_DATE ( 2021, 26, 11 ) ;
#59 = FACE_OUTER_BOUND ( 'NONE', #62, .T. ) ;
#60 = DIRECTION ( 'NONE',  ( -1.792464949801495042E-30, 1.000000000000000000, -5.133823657769884895E-16 ) ) ;
#61 = CC_DESIGN_APPROVAL ( #172, ( #116 ) ) ;
#62 = EDGE_LOOP ( 'NONE', ( #81 ) ) ;
#63 = DIRECTION ( 'NONE',  ( -3.491481338843133355E-15, 9.031770143711729009E-17, -1.000000000000000000 ) ) ;
#64 = EDGE_LOOP ( 'NONE', ( #153 ) ) ;
#65 = FACE_OUTER_BOUND ( 'NONE', #200, .T. ) ;
#66 = CARTESIAN_POINT ( 'NONE',  ( 2.793185071074506684E-13, -7.225416114969383207E-15, 80.00000000000000000 ) ) ;
#67 = COORDINATED_UNIVERSAL_TIME_OFFSET ( 1, 0, .AHEAD. ) ;
#68 = PRODUCT ( '321427', '321427', '', ( #29 ) ) ;
#69 = EDGE_CURVE ( 'NONE', #96, #96, #201, .T. ) ;
#70 = DATE_AND_TIME ( #186, #15 ) ;
#71 = UNCERTAINTY_MEASURE_WITH_UNIT (LENGTH_MEASURE( 1.000000000000000082E-05 ), #5, 'distance_accuracy_value', 'NONE');
#72 = DATE_AND_TIME ( #36, #118 ) ;
#73 = VERTEX_POINT ( 'NONE', #28 ) ;
#74 = APPROVAL_DATE_TIME ( #38, #105 ) ;
#75 = AXIS2_PLACEMENT_3D ( 'NONE', #117, #20, #57 ) ;
#76 = FACE_OUTER_BOUND ( 'NONE', #64, .T. ) ;
#77 = DIRECTION ( 'NONE',  ( -3.491481338843133355E-15, 9.031770143711729009E-17, -1.000000000000000000 ) ) ;
#78 = CYLINDRICAL_SURFACE ( 'NONE', #111, 2.618999999999995332 ) ;
#79 = FACE_OUTER_BOUND ( 'NONE', #128, .T. ) ;
#80 = AXIS2_PLACEMENT_3D ( 'NONE', #90, #145, #54 ) ;
#81 = ORIENTED_EDGE ( 'NONE', *, *, #234, .T. ) ;
#82 = DIRECTION ( 'NONE',  ( -1.764884256024959135E-30, 1.000000000000000000, -5.174695363141967017E-16 ) ) ;
#83 = CARTESIAN_POINT ( 'NONE',  ( 0.0000000000000000000, 0.0000000000000000000, 0.0000000000000000000 ) ) ;
#84 = ORIENTED_EDGE ( 'NONE', *, *, #85, .T. ) ;
#85 = EDGE_CURVE ( 'NONE', #108, #108, #242, .T. ) ;
#86 = AXIS2_PLACEMENT_3D ( 'NONE', #226, #77, #137 ) ;
#87 = EDGE_LOOP ( 'NONE', ( #159 ) ) ;
#88 = CARTESIAN_POINT ( 'NONE',  ( 4.510895771764431112E-14, 6.632755894520001877E-15, 12.91971897881908760 ) ) ;
#89 = ADVANCED_FACE ( 'NONE', ( #34, #79 ), #239, .T. ) ;
#90 = CARTESIAN_POINT ( 'NONE',  ( 0.0000000000000000000, 0.0000000000000000000, 0.0000000000000000000 ) ) ;
#91 = DATE_TIME_ROLE ( 'creation_date' ) ;
#92 = ADVANCED_FACE ( 'NONE', ( #232 ), #46, .T. ) ;
#93 = CALENDAR_DATE ( 2021, 26, 11 ) ;
#94 = CARTESIAN_POINT ( 'NONE',  ( 2.779219145719134403E-13, -7.189289034394536528E-15, 79.60000000000000853 ) ) ;
#95 = CARTESIAN_POINT ( 'NONE',  ( 0.0000000000000000000, 2.388059892324148947, 0.0000000000000000000 ) ) ;
#96 = VERTEX_POINT ( 'NONE', #39 ) ;
#97 = ORIENTED_EDGE ( 'NONE', *, *, #124, .T. ) ;
#98 = CYLINDRICAL_SURFACE ( 'NONE', #176, 1.999999999999993561 ) ;
#99 = AXIS2_PLACEMENT_3D ( 'NONE', #121, #10, #179 ) ;
#100 = ORGANIZATION ( 'UNSPECIFIED', 'UNSPECIFIED', '' ) ;
#101 = PLANE ( 'NONE',  #182 ) ;
#102 = ADVANCED_FACE ( 'NONE', ( #149, #76 ), #131, .T. ) ;
#103 = SECURITY_CLASSIFICATION ( '', '', #3 ) ;
#104 = COORDINATED_UNIVERSAL_TIME_OFFSET ( 1, 0, .AHEAD. ) ;
#105 = APPROVAL ( #185, 'UNSPECIFIED' ) ;
#106 = PERSON_AND_ORGANIZATION ( #16, #100 ) ;
#107 = APPROVAL_PERSON_ORGANIZATION ( #203, #172, #188 ) ;
#108 = VERTEX_POINT ( 'NONE', #9 ) ;
#109 = COORDINATED_UNIVERSAL_TIME_OFFSET ( 1, 0, .AHEAD. ) ;
#110 = DIRECTION ( 'NONE',  ( -1.792464949801495393E-30, 1.000000000000000000, -5.133823657769884895E-16 ) ) ;
#111 = AXIS2_PLACEMENT_3D ( 'NONE', #113, #174, #60 ) ;
#112 = APPROVAL_PERSON_ORGANIZATION ( #106, #241, #221 ) ;
#113 = CARTESIAN_POINT ( 'NONE',  ( 0.0000000000000000000, 0.0000000000000000000, 0.0000000000000000000 ) ) ;
#114 = EDGE_LOOP ( 'NONE', ( #32 ) ) ;
#115 = VERTEX_POINT ( 'NONE', #193 ) ;
#116 = PRODUCT_DEFINITION ( 'UNKNOWN', '', #184, #120 ) ;
#117 = CARTESIAN_POINT ( 'NONE',  ( -2.140256827508884873E-30, 2.388059892324148947, -6.129939185692560039E-16 ) ) ;
#118 = LOCAL_TIME ( 11, 3, 42.00000000000000000, #109 ) ;
#119 = FACE_OUTER_BOUND ( 'NONE', #87, .T. ) ;
#120 = DESIGN_CONTEXT ( 'detailed design', #194, 'design' ) ;
#121 = CARTESIAN_POINT ( 'NONE',  ( 4.280513655017769746E-30, 6.294005362439825703E-31, 1.225987837138512008E-15 ) ) ;
#122 = FACE_OUTER_BOUND ( 'NONE', #189, .T. ) ;
#123 = CIRCLE ( 'NONE', #154, 1.599999999999994982 ) ;
#124 = EDGE_CURVE ( 'NONE', #132, #132, #53, .T. ) ;
#125 = AXIS2_PLACEMENT_3D ( 'NONE', #236, #157, #138 ) ;
#126 = CC_DESIGN_APPROVAL ( #241, ( #103 ) ) ;
#127 = PERSON_AND_ORGANIZATION_ROLE ( 'design_owner' ) ;
#128 = EDGE_LOOP ( 'NONE', ( #37 ) ) ;
#129 = PERSON_AND_ORGANIZATION ( #16, #100 ) ;
#130 = PRODUCT_RELATED_PRODUCT_CATEGORY ( 'detail', '', ( #68 ) ) ;
#131 = CONICAL_SURFACE ( 'NONE', #26, 1.999999999999995337, 0.7853981633974516097 ) ;
#132 = VERTEX_POINT ( 'NONE', #190 ) ;
#133 = CALENDAR_DATE ( 2021, 26, 11 ) ;
#134 = DIRECTION ( 'NONE',  ( 0.0000000000000000000, 1.000000000000000000, 0.0000000000000000000 ) ) ;
#135 = DATE_TIME_ROLE ( 'classification_date' ) ;
#136 = CC_DESIGN_SECURITY_CLASSIFICATION ( #103, ( #184 ) ) ;
#137 = DIRECTION ( 'NONE',  ( 0.0000000000000000000, 1.000000000000000000, 0.0000000000000000000 ) ) ;
#138 = DIRECTION ( 'NONE',  ( 0.0000000000000000000, 1.000000000000000000, 0.0000000000000000000 ) ) ;
#139 = EDGE_LOOP ( 'NONE', ( #175 ) ) ;
#140 = PERSON_AND_ORGANIZATION ( #16, #100 ) ;
#141 = FACE_OUTER_BOUND ( 'NONE', #114, .T. ) ;
#142 = DIRECTION ( 'NONE',  ( 3.491481338843133355E-15, -9.031770143711729009E-17, 1.000000000000000000 ) ) ;
#143 = PRODUCT_DEFINITION_SHAPE ( 'NONE', 'NONE',  #116 ) ;
#144 = CC_DESIGN_DATE_AND_TIME_ASSIGNMENT ( #227, #135, ( #103 ) ) ;
#145 = DIRECTION ( 'NONE',  ( 0.0000000000000000000, 0.0000000000000000000, 1.000000000000000000 ) ) ;
#146 = PERSON_AND_ORGANIZATION ( #16, #100 ) ;
#147 =( GEOMETRIC_REPRESENTATION_CONTEXT ( 3 ) GLOBAL_UNCERTAINTY_ASSIGNED_CONTEXT ( ( #71 ) ) GLOBAL_UNIT_ASSIGNED_CONTEXT ( ( #5, #210, #233 ) ) REPRESENTATION_CONTEXT ( 'NONE', 'WORKASPACE' ) );
#148 = PERSON_AND_ORGANIZATION_ROLE ( 'classification_officer' ) ;
#149 = FACE_BOUND ( 'NONE', #30, .T. ) ;
#150 = COORDINATED_UNIVERSAL_TIME_OFFSET ( 1, 0, .AHEAD. ) ;
#151 = PERSON_AND_ORGANIZATION ( #16, #100 ) ;
#152 = FACE_OUTER_BOUND ( 'NONE', #8, .T. ) ;
#153 = ORIENTED_EDGE ( 'NONE', *, *, #124, .F. ) ;
#154 = AXIS2_PLACEMENT_3D ( 'NONE', #230, #212, #2 ) ;
#155 = DIRECTION ( 'NONE',  ( -3.491481338843133355E-15, 9.031770143711729009E-17, -1.000000000000000000 ) ) ;
#156 = DIRECTION ( 'NONE',  ( -2.353179008033285387E-30, 1.000000000000000000, -6.623610064821735926E-16 ) ) ;
#157 = DIRECTION ( 'NONE',  ( -3.491481338843133355E-15, 9.031770143711729009E-17, -1.000000000000000000 ) ) ;
#158 = CARTESIAN_POINT ( 'NONE',  ( 4.510895771764430481E-14, -1.166879321380440187E-15, 12.91971897881908760 ) ) ;
#159 = ORIENTED_EDGE ( 'NONE', *, *, #69, .T. ) ;
#160 = DIRECTION ( 'NONE',  ( -3.491481338843133355E-15, -5.133823657769884895E-16, -1.000000000000000000 ) ) ;
#161 = EDGE_LOOP ( 'NONE', ( #196 ) ) ;
#162 = CC_DESIGN_PERSON_AND_ORGANIZATION_ASSIGNMENT ( #24, #224, ( #184 ) ) ;
#163 = PLANE ( 'NONE',  #55 ) ;
#164 = PLANE ( 'NONE',  #208 ) ;
#165 = APPROVAL_PERSON_ORGANIZATION ( #206, #105, #21 ) ;
#166 = APPROVAL_STATUS ( 'not_yet_approved' ) ;
#167 = MANIFOLD_SOLID_BREP ( 'Corps-Déplacer/Copier1[2]', #181 ) ;
#168 = ADVANCED_FACE ( 'NONE', ( #59, #170 ), #78, .T. ) ;
#169 = DATE_AND_TIME ( #133, #56 ) ;
#170 = FACE_OUTER_BOUND ( 'NONE', #178, .T. ) ;
#171 = DIRECTION ( 'NONE',  ( 0.0000000000000000000, 1.000000000000000000, 0.0000000000000000000 ) ) ;
#172 = APPROVAL ( #166, 'UNSPECIFIED' ) ;
#173 = CARTESIAN_POINT ( 'NONE',  ( 4.510895771764431112E-14, 6.632755894520001089E-15, 12.91971897881908760 ) ) ;
#174 = DIRECTION ( 'NONE',  ( -3.491481338843133355E-15, -5.133823657769884895E-16, -1.000000000000000000 ) ) ;
#175 = ORIENTED_EDGE ( 'NONE', *, *, #229, .F. ) ;
#176 = AXIS2_PLACEMENT_3D ( 'NONE', #83, #180, #198 ) ;
#177 = CC_DESIGN_PERSON_AND_ORGANIZATION_ASSIGNMENT ( #146, #148, ( #103 ) ) ;
#178 = EDGE_LOOP ( 'NONE', ( #214 ) ) ;
#179 = DIRECTION ( 'NONE',  ( 1.792464949801495393E-30, -1.000000000000000000, 5.133823657769884895E-16 ) ) ;
#180 = DIRECTION ( 'NONE',  ( -3.491481338843133355E-15, 9.031770143711729009E-17, -1.000000000000000000 ) ) ;
#181 = CLOSED_SHELL ( 'NONE', ( #33, #168, #52, #92 ) ) ;
#182 = AXIS2_PLACEMENT_3D ( 'NONE', #88, #216, #19 ) ;
#183 = EDGE_CURVE ( 'NONE', #44, #44, #220, .T. ) ;
#184 = PRODUCT_DEFINITION_FORMATION_WITH_SPECIFIED_SOURCE ( 'ANY', '', #68, .NOT_KNOWN. ) ;
#185 = APPROVAL_STATUS ( 'not_yet_approved' ) ;
#186 = CALENDAR_DATE ( 2021, 26, 11 ) ;
#187 = CLOSED_SHELL ( 'NONE', ( #12, #102, #6, #89, #50 ) ) ;
#188 = APPROVAL_ROLE ( '' ) ;
#189 = EDGE_LOOP ( 'NONE', ( #237 ) ) ;
#190 = CARTESIAN_POINT ( 'NONE',  ( 2.779219145719134403E-13, 1.999999999999988010, 79.60000000000000853 ) ) ;
#191 = COORDINATED_UNIVERSAL_TIME_OFFSET ( 1, 0, .AHEAD. ) ;
#192 = FACE_OUTER_BOUND ( 'NONE', #13, .T. ) ;
#193 = CARTESIAN_POINT ( 'NONE',  ( 2.793185071074506684E-13, 1.599999999999987876, 80.00000000000000000 ) ) ;
#194 = APPLICATION_CONTEXT ( 'configuration controlled 3d designs of mechanical parts and assemblies' ) ;
#195 = CC_DESIGN_DATE_AND_TIME_ASSIGNMENT ( #169, #91, ( #116 ) ) ;
#196 = ORIENTED_EDGE ( 'NONE', *, *, #183, .T. ) ;
#197 = LOCAL_TIME ( 11, 3, 42.00000000000000000, #67 ) ;
#198 = DIRECTION ( 'NONE',  ( 3.153425691349006731E-31, 1.000000000000000000, 9.031770143711729009E-17 ) ) ;
#199 = EDGE_CURVE ( 'NONE', #115, #115, #123, .T. ) ;
#200 = EDGE_LOOP ( 'NONE', ( #17 ) ) ;
#201 = CIRCLE ( 'NONE', #51, 2.618999999999998884 ) ;
#202 = LOCAL_TIME ( 11, 3, 42.00000000000000000, #150 ) ;
#203 = PERSON_AND_ORGANIZATION ( #16, #100 ) ;
#204 = CC_DESIGN_PERSON_AND_ORGANIZATION_ASSIGNMENT ( #151, #18, ( #116 ) ) ;
#205 = ADVANCED_BREP_SHAPE_REPRESENTATION ( '321427', ( #7, #167, #80 ), #147 ) ;
#206 = PERSON_AND_ORGANIZATION ( #16, #100 ) ;
#207 = SHAPE_DEFINITION_REPRESENTATION ( #143, #205 ) ;
#208 = AXIS2_PLACEMENT_3D ( 'NONE', #11, #22, #238 ) ;
#209 = APPLICATION_PROTOCOL_DEFINITION ( 'international standard', 'config_control_design', 1994, #194 ) ;
#210 =( NAMED_UNIT ( * ) PLANE_ANGLE_UNIT ( ) SI_UNIT ( $, .RADIAN. ) );
#211 = DIRECTION ( 'NONE',  ( -3.491481338843133355E-15, -5.133823657769884895E-16, -1.000000000000000000 ) ) ;
#212 = DIRECTION ( 'NONE',  ( -3.491481338843133355E-15, 9.031770143711729009E-17, -1.000000000000000000 ) ) ;
#213 = DIRECTION ( 'NONE',  ( 0.0000000000000000000, 1.000000000000000000, 0.0000000000000000000 ) ) ;
#214 = ORIENTED_EDGE ( 'NONE', *, *, #69, .F. ) ;
#215 = CIRCLE ( 'NONE', #225, 2.618999999999991779 ) ;
#216 = DIRECTION ( 'NONE',  ( 3.491481338843133355E-15, 5.133823657769884895E-16, 1.000000000000000000 ) ) ;
#217 = FACE_BOUND ( 'NONE', #139, .T. ) ;
#218 = CARTESIAN_POINT ( 'NONE',  ( 1.396592535537257878E-15, 2.053529463107960910E-16, 0.4000000000000012990 ) ) ;
#219 = DIRECTION ( 'NONE',  ( -3.153425691349006731E-31, -1.000000000000000000, -9.031770143711729009E-17 ) ) ;
#220 = CIRCLE ( 'NONE', #14, 1.999999999999991784 ) ;
#221 = APPROVAL_ROLE ( '' ) ;
#222 = APPROVAL_DATE_TIME ( #70, #241 ) ;
#223 = APPROVAL_DATE_TIME ( #72, #172 ) ;
#224 = PERSON_AND_ORGANIZATION_ROLE ( 'design_supplier' ) ;
#225 = AXIS2_PLACEMENT_3D ( 'NONE', #173, #42, #156 ) ;
#226 = CARTESIAN_POINT ( 'NONE',  ( 2.779219145719134403E-13, -7.189289034394536528E-15, 79.60000000000000853 ) ) ;
#227 = DATE_AND_TIME ( #58, #202 ) ;
#228 = CARTESIAN_POINT ( 'NONE',  ( 4.885231259955590439E-14, -1.263712492114123682E-15, 13.99185842870425134 ) ) ;
#229 = EDGE_CURVE ( 'NONE', #4, #4, #243, .T. ) ;
#230 = CARTESIAN_POINT ( 'NONE',  ( 2.793185071074506684E-13, -7.225416114969383207E-15, 80.00000000000000000 ) ) ;
#231 = AXIS2_PLACEMENT_3D ( 'NONE', #158, #155, #213 ) ;
#232 = FACE_OUTER_BOUND ( 'NONE', #47, .T. ) ;
#233 =( NAMED_UNIT ( * ) SI_UNIT ( $, .STERADIAN. ) SOLID_ANGLE_UNIT ( ) );
#234 = EDGE_CURVE ( 'NONE', #73, #73, #215, .T. ) ;
#235 = CONICAL_SURFACE ( 'NONE', #99, 2.388059892324148947, 0.5235987755982978165 ) ;
#236 = CARTESIAN_POINT ( 'NONE',  ( 4.510895771764430481E-14, -1.166879321380440187E-15, 12.91971897881908760 ) ) ;
#237 = ORIENTED_EDGE ( 'NONE', *, *, #234, .F. ) ;
#238 = DIRECTION ( 'NONE',  ( 3.153425691349006731E-31, 1.000000000000000000, 9.031770143711729009E-17 ) ) ;
#239 = CONICAL_SURFACE ( 'NONE', #231, 2.618999999999999773, 0.5235987755982922653 ) ;
#240 = AXIS2_PLACEMENT_3D ( 'NONE', #41, #211, #110 ) ;
#241 = APPROVAL ( #35, 'UNSPECIFIED' ) ;
#242 = CIRCLE ( 'NONE', #125, 2.618999999999999773 ) ;
#243 = CIRCLE ( 'NONE', #240, 2.388059892324148947 ) ;
ENDSEC;
END-ISO-10303-21;
