ISO-10303-21;
HEADER;
FILE_DESCRIPTION (( 'STEP AP203' ),
    '1' );
FILE_NAME ('321426.step',
    '2021-11-26T10:03:42',
    ( '' ),
    ( '' ),
    'SwSTEP 2.0',
    'SolidWorks 2019',
    '' );
FILE_SCHEMA (( 'CONFIG_CONTROL_DESIGN' ));
ENDSEC;

DATA;
#1 = EDGE_CURVE ( 'NONE', #76, #76, #58, .T. ) ;
#2 = FACE_OUTER_BOUND ( 'NONE', #40, .T. ) ;
#3 = CARTESIAN_POINT ( 'NONE',  ( -2.133662424236248076E-30, 2.383059892324149054, -6.111052064059478018E-16 ) ) ;
#4 = DATE_TIME_ROLE ( 'classification_date' ) ;
#5 = EDGE_LOOP ( 'NONE', ( #124 ) ) ;
#6 = EDGE_CURVE ( 'NONE', #73, #73, #176, .T. ) ;
#7 = VERTEX_POINT ( 'NONE', #112 ) ;
#8 = DIRECTION ( 'NONE',  ( -3.491481338843133355E-15, 9.031770143711729009E-17, -1.000000000000000000 ) ) ;
#9 = VERTEX_POINT ( 'NONE', #17 ) ;
#10 = EDGE_LOOP ( 'NONE', ( #15 ) ) ;
#11 = DIRECTION ( 'NONE',  ( 3.491481338843133355E-15, -9.031770143711729009E-17, 1.000000000000000000 ) ) ;
#12 = CALENDAR_DATE ( 2021, 26, 11 ) ;
#13 = DIRECTION ( 'NONE',  ( -3.153425691349006731E-31, -1.000000000000000000, -9.031770143711729009E-17 ) ) ;
#14 = COORDINATED_UNIVERSAL_TIME_OFFSET ( 1, 0, .AHEAD. ) ;
#15 = ORIENTED_EDGE ( 'NONE', *, *, #82, .F. ) ;
#16 = EDGE_CURVE ( 'NONE', #64, #64, #71, .T. ) ;
#17 = CARTESIAN_POINT ( 'NONE',  ( 4.513919483300709247E-14, 2.613999999999998103, 12.92837923285693336 ) ) ;
#18 = FACE_OUTER_BOUND ( 'NONE', #161, .T. ) ;
#19 = AXIS2_PLACEMENT_3D ( 'NONE', #35, #92, #93 ) ;
#20 = CC_DESIGN_APPROVAL ( #156, ( #136 ) ) ;
#21 = DIRECTION ( 'NONE',  ( -3.491481338843133355E-15, 9.031770143711729009E-17, -1.000000000000000000 ) ) ;
#22 = CARTESIAN_POINT ( 'NONE',  ( 4.267324848472496151E-30, 6.268404323354851170E-31, 1.222210412811895604E-15 ) ) ;
#23 = PLANE ( 'NONE',  #79 ) ;
#24 = DIRECTION ( 'NONE',  ( -3.491481338843133355E-15, -5.128744001561366615E-16, -1.000000000000000000 ) ) ;
#25 = DATE_AND_TIME ( #149, #85 ) ;
#26 = DIRECTION ( 'NONE',  ( 3.153425691349006731E-31, 1.000000000000000000, 9.031770143711729009E-17 ) ) ;
#27 = AXIS2_PLACEMENT_3D ( 'NONE', #215, #193, #26 ) ;
#28 = FACE_BOUND ( 'NONE', #70, .T. ) ;
#29 = PERSON_AND_ORGANIZATION ( #157, #80 ) ;
#30 = FACE_OUTER_BOUND ( 'NONE', #140, .T. ) ;
#31 = CALENDAR_DATE ( 2021, 26, 11 ) ;
#32 = PERSON_AND_ORGANIZATION_ROLE ( 'creator' ) ;
#33 = CLOSED_SHELL ( 'NONE', ( #230, #222, #239, #243, #192 ) ) ;
#34 = CC_DESIGN_DATE_AND_TIME_ASSIGNMENT ( #135, #197, ( #136 ) ) ;
#35 = CARTESIAN_POINT ( 'NONE',  ( 4.513919483300708616E-14, 2.613999999999998103, 12.92837923285693158 ) ) ;
#36 = MANIFOLD_SOLID_BREP ( 'Corps-Déplacer/Copier1[2]', #180 ) ;
#37 = CARTESIAN_POINT ( 'NONE',  ( 4.513919483300708616E-14, 6.630634744042552578E-15, 12.92837923285693158 ) ) ;
#38 = CC_DESIGN_APPROVAL ( #178, ( #175 ) ) ;
#39 = ADVANCED_FACE ( 'NONE', ( #208, #113 ), #88, .T. ) ;
#40 = EDGE_LOOP ( 'NONE', ( #107 ) ) ;
#41 = CYLINDRICAL_SURFACE ( 'NONE', #51, 2.613999999999995438 ) ;
#42 = CARTESIAN_POINT ( 'NONE',  ( 0.0000000000000000000, 0.0000000000000000000, 0.0000000000000000000 ) ) ;
#43 = EDGE_CURVE ( 'NONE', #9, #9, #238, .T. ) ;
#44 = COORDINATED_UNIVERSAL_TIME_OFFSET ( 1, 0, .AHEAD. ) ;
#45 = AXIS2_PLACEMENT_3D ( 'NONE', #98, #11, #13 ) ;
#46 = ADVANCED_FACE ( 'NONE', ( #224 ), #146, .T. ) ;
#47 = SECURITY_CLASSIFICATION_LEVEL ( 'unclassified' ) ;
#48 = FACE_OUTER_BOUND ( 'NONE', #182, .T. ) ;
#49 = APPLICATION_CONTEXT ( 'configuration controlled 3d designs of mechanical parts and assemblies' ) ;
#50 = APPROVAL_STATUS ( 'not_yet_approved' ) ;
#51 = AXIS2_PLACEMENT_3D ( 'NONE', #42, #24, #110 ) ;
#52 = CALENDAR_DATE ( 2021, 26, 11 ) ;
#53 = CC_DESIGN_SECURITY_CLASSIFICATION ( #134, ( #175 ) ) ;
#54 = EDGE_CURVE ( 'NONE', #237, #237, #163, .T. ) ;
#55 = COORDINATED_UNIVERSAL_TIME_OFFSET ( 1, 0, .AHEAD. ) ;
#56 = EDGE_LOOP ( 'NONE', ( #103 ) ) ;
#57 = ORIENTED_EDGE ( 'NONE', *, *, #54, .F. ) ;
#58 = CIRCLE ( 'NONE', #211, 1.999999999999991784 ) ;
#59 = FACE_BOUND ( 'NONE', #104, .T. ) ;
#60 = DIRECTION ( 'NONE',  ( -3.491481338843133355E-15, -5.128744001561366615E-16, -1.000000000000000000 ) ) ;
#61 = APPROVAL_PERSON_ORGANIZATION ( #83, #156, #117 ) ;
#62 = COORDINATED_UNIVERSAL_TIME_OFFSET ( 1, 0, .AHEAD. ) ;
#63 = FACE_OUTER_BOUND ( 'NONE', #139, .T. ) ;
#64 = VERTEX_POINT ( 'NONE', #155 ) ;
#65 = DIRECTION ( 'NONE',  ( -1.790691397315517056E-30, 1.000000000000000000, -5.128744001561366615E-16 ) ) ;
#66 = CC_DESIGN_PERSON_AND_ORGANIZATION_ASSIGNMENT ( #118, #183, ( #134 ) ) ;
#67 = AXIS2_PLACEMENT_3D ( 'NONE', #22, #109, #142 ) ;
#68 = MECHANICAL_CONTEXT ( 'NONE', #49, 'mechanical' ) ;
#69 = DESIGN_CONTEXT ( 'detailed design', #213, 'design' ) ;
#70 = EDGE_LOOP ( 'NONE', ( #187 ) ) ;
#71 = CIRCLE ( 'NONE', #204, 2.613999999999998547 ) ;
#72 = ORIENTED_EDGE ( 'NONE', *, *, #16, .T. ) ;
#73 = VERTEX_POINT ( 'NONE', #100 ) ;
#74 =( LENGTH_UNIT ( ) NAMED_UNIT ( * ) SI_UNIT ( .MILLI., .METRE. ) );
#75 = CALENDAR_DATE ( 2021, 26, 11 ) ;
#76 = VERTEX_POINT ( 'NONE', #89 ) ;
#77 = DIRECTION ( 'NONE',  ( 1.790691397315517056E-30, -1.000000000000000000, 5.128744001561366615E-16 ) ) ;
#78 = DIRECTION ( 'NONE',  ( -3.491481338843133355E-15, -5.128744001561366615E-16, -1.000000000000000000 ) ) ;
#79 = AXIS2_PLACEMENT_3D ( 'NONE', #37, #168, #77 ) ;
#80 = ORGANIZATION ( 'UNSPECIFIED', 'UNSPECIFIED', '' ) ;
#81 = PERSON_AND_ORGANIZATION ( #157, #80 ) ;
#82 = EDGE_CURVE ( 'NONE', #114, #114, #199, .T. ) ;
#83 = PERSON_AND_ORGANIZATION ( #157, #80 ) ;
#84 = COORDINATED_UNIVERSAL_TIME_OFFSET ( 1, 0, .AHEAD. ) ;
#85 = LOCAL_TIME ( 11, 3, 42.00000000000000000, #44 ) ;
#86 = APPROVAL_STATUS ( 'not_yet_approved' ) ;
#87 = PERSON_AND_ORGANIZATION ( #157, #80 ) ;
#88 = CONICAL_SURFACE ( 'NONE', #67, 2.383059892324149054, 0.5235987755982978165 ) ;
#89 = CARTESIAN_POINT ( 'NONE',  ( 4.885231259955590439E-14, 1.999999999999990452, 13.99185842870425134 ) ) ;
#90 = LOCAL_TIME ( 11, 3, 42.00000000000000000, #62 ) ;
#91 = CARTESIAN_POINT ( 'NONE',  ( 2.779219145719134403E-13, -7.189289034394536528E-15, 79.60000000000000853 ) ) ;
#92 = DIRECTION ( 'NONE',  ( -3.491481338843133355E-15, 9.031770143711729009E-17, -1.000000000000000000 ) ) ;
#93 = DIRECTION ( 'NONE',  ( 3.153425691349006731E-31, 1.000000000000000000, 9.031770143711729009E-17 ) ) ;
#94 = DIRECTION ( 'NONE',  ( 0.0000000000000000000, 1.000000000000000000, 0.0000000000000000000 ) ) ;
#95 = DIRECTION ( 'NONE',  ( 0.0000000000000000000, 1.000000000000000000, 0.0000000000000000000 ) ) ;
#96 = DIRECTION ( 'NONE',  ( -3.491481338843133355E-15, 9.031770143711729009E-17, -1.000000000000000000 ) ) ;
#97 = LOCAL_TIME ( 11, 3, 42.00000000000000000, #14 ) ;
#98 = CARTESIAN_POINT ( 'NONE',  ( 2.793185071074506684E-13, -7.225416114969383207E-15, 80.00000000000000000 ) ) ;
#99 = DIRECTION ( 'NONE',  ( 1.000000000000000000, 0.0000000000000000000, 0.0000000000000000000 ) ) ;
#100 = CARTESIAN_POINT ( 'NONE',  ( 2.779219145719134403E-13, 1.999999999999988010, 79.60000000000000853 ) ) ;
#101 = APPROVAL_DATE_TIME ( #198, #178 ) ;
#102 = UNCERTAINTY_MEASURE_WITH_UNIT (LENGTH_MEASURE( 1.000000000000000082E-05 ), #74, 'distance_accuracy_value', 'NONE');
#103 = ORIENTED_EDGE ( 'NONE', *, *, #82, .T. ) ;
#104 = EDGE_LOOP ( 'NONE', ( #186 ) ) ;
#105 = CARTESIAN_POINT ( 'NONE',  ( 4.513919483300709879E-14, 6.630634744042554944E-15, 12.92837923285693513 ) ) ;
#106 = AXIS2_PLACEMENT_3D ( 'NONE', #170, #188, #95 ) ;
#107 = ORIENTED_EDGE ( 'NONE', *, *, #6, .F. ) ;
#108 = SHAPE_DEFINITION_REPRESENTATION ( #153, #122 ) ;
#109 = DIRECTION ( 'NONE',  ( 3.491481338843133355E-15, 5.128744001561366615E-16, 1.000000000000000000 ) ) ;
#110 = DIRECTION ( 'NONE',  ( -1.790691397315516706E-30, 1.000000000000000000, -5.128744001561366615E-16 ) ) ;
#111 = CC_DESIGN_PERSON_AND_ORGANIZATION_ASSIGNMENT ( #87, #32, ( #136 ) ) ;
#112 = CARTESIAN_POINT ( 'NONE',  ( 2.793185071074506684E-13, 1.599999999999987876, 80.00000000000000000 ) ) ;
#113 = FACE_BOUND ( 'NONE', #10, .T. ) ;
#114 = VERTEX_POINT ( 'NONE', #212 ) ;
#115 = CYLINDRICAL_SURFACE ( 'NONE', #27, 1.999999999999993561 ) ;
#116 = AXIS2_PLACEMENT_3D ( 'NONE', #231, #60, #172 ) ;
#117 = APPROVAL_ROLE ( '' ) ;
#118 = PERSON_AND_ORGANIZATION ( #157, #80 ) ;
#119 = DIRECTION ( 'NONE',  ( 0.0000000000000000000, 0.0000000000000000000, 1.000000000000000000 ) ) ;
#120 = PERSON_AND_ORGANIZATION ( #157, #80 ) ;
#121 = EDGE_LOOP ( 'NONE', ( #72 ) ) ;
#122 = ADVANCED_BREP_SHAPE_REPRESENTATION ( '321426', ( #201, #36, #200 ), #166 ) ;
#123 = AXIS2_PLACEMENT_3D ( 'NONE', #191, #8, #226 ) ;
#124 = ORIENTED_EDGE ( 'NONE', *, *, #16, .F. ) ;
#125 = DIRECTION ( 'NONE',  ( -3.491481338843133355E-15, -5.128744001561366615E-16, -1.000000000000000000 ) ) ;
#126 = PLANE ( 'NONE',  #19 ) ;
#127 = DIRECTION ( 'NONE',  ( 0.0000000000000000000, 1.000000000000000000, 0.0000000000000000000 ) ) ;
#128 = FACE_OUTER_BOUND ( 'NONE', #138, .T. ) ;
#129 = LOCAL_TIME ( 11, 3, 42.00000000000000000, #84 ) ;
#130 = EDGE_CURVE ( 'NONE', #7, #7, #171, .T. ) ;
#131 = PERSON_AND_ORGANIZATION_ROLE ( 'design_owner' ) ;
#132 = FACE_OUTER_BOUND ( 'NONE', #202, .T. ) ;
#133 = PRODUCT ( '321426', '321426', '', ( #68 ) ) ;
#134 = SECURITY_CLASSIFICATION ( '', '', #47 ) ;
#135 = DATE_AND_TIME ( #31, #97 ) ;
#136 = PRODUCT_DEFINITION ( 'UNKNOWN', '', #175, #69 ) ;
#137 = ORIENTED_EDGE ( 'NONE', *, *, #43, .T. ) ;
#138 = EDGE_LOOP ( 'NONE', ( #165 ) ) ;
#139 = EDGE_LOOP ( 'NONE', ( #137 ) ) ;
#140 = EDGE_LOOP ( 'NONE', ( #203 ) ) ;
#141 = CARTESIAN_POINT ( 'NONE',  ( 1.396592535537257878E-15, 2.051497600624553351E-16, 0.4000000000000012990 ) ) ;
#142 = DIRECTION ( 'NONE',  ( 1.790691397315517056E-30, -1.000000000000000000, 5.128744001561366615E-16 ) ) ;
#143 = PRODUCT_RELATED_PRODUCT_CATEGORY ( 'detail', '', ( #133 ) ) ;
#144 = APPROVAL_STATUS ( 'not_yet_approved' ) ;
#145 =( NAMED_UNIT ( * ) SI_UNIT ( $, .STERADIAN. ) SOLID_ANGLE_UNIT ( ) );
#146 = PLANE ( 'NONE',  #227 ) ;
#147 = DIRECTION ( 'NONE',  ( -2.357680115546738208E-30, 1.000000000000000000, -6.636279556146948843E-16 ) ) ;
#148 = DIRECTION ( 'NONE',  ( -3.491481338843133355E-15, -5.128744001561366615E-16, -1.000000000000000000 ) ) ;
#149 = CALENDAR_DATE ( 2021, 26, 11 ) ;
#150 =( NAMED_UNIT ( * ) PLANE_ANGLE_UNIT ( ) SI_UNIT ( $, .RADIAN. ) );
#151 = LOCAL_TIME ( 11, 3, 42.00000000000000000, #55 ) ;
#152 = DATE_AND_TIME ( #75, #90 ) ;
#153 = PRODUCT_DEFINITION_SHAPE ( 'NONE', 'NONE',  #136 ) ;
#154 = DATE_AND_TIME ( #12, #151 ) ;
#155 = CARTESIAN_POINT ( 'NONE',  ( 1.396592535537253342E-15, 2.613999999999998547, 0.3999999999999999667 ) ) ;
#156 = APPROVAL ( #50, 'UNSPECIFIED' ) ;
#157 = PERSON ( 'UNSPECIFIED', 'UNSPECIFIED', 'UNSPECIFIED', ('UNSPECIFIED'), ('UNSPECIFIED'), ('UNSPECIFIED') ) ;
#158 = PERSON_AND_ORGANIZATION_ROLE ( 'creator' ) ;
#159 = APPROVAL_PERSON_ORGANIZATION ( #81, #194, #189 ) ;
#160 = CARTESIAN_POINT ( 'NONE',  ( 4.513919483300709247E-14, -1.167661495619000074E-15, 12.92837923285693336 ) ) ;
#161 = EDGE_LOOP ( 'NONE', ( #57 ) ) ;
#162 = PERSON_AND_ORGANIZATION ( #157, #80 ) ;
#163 = CIRCLE ( 'NONE', #174, 2.613999999999991886 ) ;
#164 = CC_DESIGN_APPROVAL ( #194, ( #134 ) ) ;
#165 = ORIENTED_EDGE ( 'NONE', *, *, #130, .F. ) ;
#166 =( GEOMETRIC_REPRESENTATION_CONTEXT ( 3 ) GLOBAL_UNCERTAINTY_ASSIGNED_CONTEXT ( ( #102 ) ) GLOBAL_UNIT_ASSIGNED_CONTEXT ( ( #74, #150, #145 ) ) REPRESENTATION_CONTEXT ( 'NONE', 'WORKASPACE' ) );
#167 = DIRECTION ( 'NONE',  ( -3.491481338843133355E-15, 9.031770143711729009E-17, -1.000000000000000000 ) ) ;
#168 = DIRECTION ( 'NONE',  ( 3.491481338843133355E-15, 5.128744001561366615E-16, 1.000000000000000000 ) ) ;
#169 = ADVANCED_FACE ( 'NONE', ( #184, #205 ), #41, .T. ) ;
#170 = CARTESIAN_POINT ( 'NONE',  ( 2.779219145719134403E-13, -7.189289034394536528E-15, 79.60000000000000853 ) ) ;
#171 = CIRCLE ( 'NONE', #233, 1.599999999999994982 ) ;
#172 = DIRECTION ( 'NONE',  ( -1.790691397315517056E-30, 1.000000000000000000, -5.128744001561366615E-16 ) ) ;
#173 = DIRECTION ( 'NONE',  ( -3.491481338843133355E-15, 9.031770143711729009E-17, -1.000000000000000000 ) ) ;
#174 = AXIS2_PLACEMENT_3D ( 'NONE', #105, #148, #147 ) ;
#175 = PRODUCT_DEFINITION_FORMATION_WITH_SPECIFIED_SOURCE ( 'ANY', '', #133, .NOT_KNOWN. ) ;
#176 = CIRCLE ( 'NONE', #242, 1.999999999999995337 ) ;
#177 = APPROVAL_DATE_TIME ( #154, #156 ) ;
#178 = APPROVAL ( #86, 'UNSPECIFIED' ) ;
#179 = ORIENTED_EDGE ( 'NONE', *, *, #1, .F. ) ;
#180 = CLOSED_SHELL ( 'NONE', ( #225, #169, #39, #46 ) ) ;
#181 = APPROVAL_PERSON_ORGANIZATION ( #120, #178, #218 ) ;
#182 = EDGE_LOOP ( 'NONE', ( #220 ) ) ;
#183 = PERSON_AND_ORGANIZATION_ROLE ( 'classification_officer' ) ;
#184 = FACE_OUTER_BOUND ( 'NONE', #221, .T. ) ;
#185 = CC_DESIGN_PERSON_AND_ORGANIZATION_ASSIGNMENT ( #29, #214, ( #175 ) ) ;
#186 = ORIENTED_EDGE ( 'NONE', *, *, #130, .T. ) ;
#187 = ORIENTED_EDGE ( 'NONE', *, *, #1, .T. ) ;
#188 = DIRECTION ( 'NONE',  ( -3.491481338843133355E-15, 9.031770143711729009E-17, -1.000000000000000000 ) ) ;
#189 = APPROVAL_ROLE ( '' ) ;
#190 = AXIS2_PLACEMENT_3D ( 'NONE', #160, #96, #240 ) ;
#191 = CARTESIAN_POINT ( 'NONE',  ( 4.513919483300709247E-14, -1.167661495619000074E-15, 12.92837923285693336 ) ) ;
#192 = ADVANCED_FACE ( 'NONE', ( #63 ), #126, .T. ) ;
#193 = DIRECTION ( 'NONE',  ( -3.491481338843133355E-15, 9.031770143711729009E-17, -1.000000000000000000 ) ) ;
#194 = APPROVAL ( #144, 'UNSPECIFIED' ) ;
#195 = CONICAL_SURFACE ( 'NONE', #190, 2.613999999999999435, 0.5235987755982930425 ) ;
#196 = CARTESIAN_POINT ( 'NONE',  ( 0.0000000000000000000, 0.0000000000000000000, 0.0000000000000000000 ) ) ;
#197 = DATE_TIME_ROLE ( 'creation_date' ) ;
#198 = DATE_AND_TIME ( #52, #129 ) ;
#199 = CIRCLE ( 'NONE', #116, 2.383059892324149054 ) ;
#200 = AXIS2_PLACEMENT_3D ( 'NONE', #196, #119, #99 ) ;
#201 = MANIFOLD_SOLID_BREP ( 'Corps-Déplacer/Copier1[1]', #33 ) ;
#202 = EDGE_LOOP ( 'NONE', ( #179 ) ) ;
#203 = ORIENTED_EDGE ( 'NONE', *, *, #6, .T. ) ;
#204 = AXIS2_PLACEMENT_3D ( 'NONE', #141, #78, #206 ) ;
#205 = FACE_OUTER_BOUND ( 'NONE', #5, .T. ) ;
#206 = DIRECTION ( 'NONE',  ( -1.768260086660049277E-30, 1.000000000000000000, -5.184593403239790287E-16 ) ) ;
#207 = CC_DESIGN_PERSON_AND_ORGANIZATION_ASSIGNMENT ( #162, #158, ( #175 ) ) ;
#208 = FACE_OUTER_BOUND ( 'NONE', #121, .T. ) ;
#209 = DIRECTION ( 'NONE',  ( 0.0000000000000000000, 1.000000000000000000, 0.0000000000000000000 ) ) ;
#210 = PLANE ( 'NONE',  #45 ) ;
#211 = AXIS2_PLACEMENT_3D ( 'NONE', #229, #173, #127 ) ;
#212 = CARTESIAN_POINT ( 'NONE',  ( 0.0000000000000000000, 2.383059892324149054, 0.0000000000000000000 ) ) ;
#213 = APPLICATION_CONTEXT ( 'configuration controlled 3d designs of mechanical parts and assemblies' ) ;
#214 = PERSON_AND_ORGANIZATION_ROLE ( 'design_supplier' ) ;
#215 = CARTESIAN_POINT ( 'NONE',  ( 0.0000000000000000000, 0.0000000000000000000, 0.0000000000000000000 ) ) ;
#216 = APPLICATION_PROTOCOL_DEFINITION ( 'international standard', 'config_control_design', 1994, #213 ) ;
#217 = CC_DESIGN_DATE_AND_TIME_ASSIGNMENT ( #25, #4, ( #134 ) ) ;
#218 = APPROVAL_ROLE ( '' ) ;
#219 = CONICAL_SURFACE ( 'NONE', #106, 1.999999999999995337, 0.7853981633974516097 ) ;
#220 = ORIENTED_EDGE ( 'NONE', *, *, #43, .F. ) ;
#221 = EDGE_LOOP ( 'NONE', ( #223 ) ) ;
#222 = ADVANCED_FACE ( 'NONE', ( #59, #2 ), #219, .T. ) ;
#223 = ORIENTED_EDGE ( 'NONE', *, *, #54, .T. ) ;
#224 = FACE_OUTER_BOUND ( 'NONE', #56, .T. ) ;
#225 = ADVANCED_FACE ( 'NONE', ( #18 ), #23, .T. ) ;
#226 = DIRECTION ( 'NONE',  ( 0.0000000000000000000, 1.000000000000000000, 0.0000000000000000000 ) ) ;
#227 = AXIS2_PLACEMENT_3D ( 'NONE', #3, #125, #65 ) ;
#228 = CARTESIAN_POINT ( 'NONE',  ( 4.513919483300709247E-14, 2.613999999999998103, 12.92837923285693336 ) ) ;
#229 = CARTESIAN_POINT ( 'NONE',  ( 4.885231259955590439E-14, -1.263712492114123682E-15, 13.99185842870425134 ) ) ;
#230 = ADVANCED_FACE ( 'NONE', ( #128 ), #210, .T. ) ;
#231 = CARTESIAN_POINT ( 'NONE',  ( 4.267324848472496151E-30, 6.268404323354851170E-31, 1.222210412811895604E-15 ) ) ;
#232 = CARTESIAN_POINT ( 'NONE',  ( 2.793185071074506684E-13, -7.225416114969383207E-15, 80.00000000000000000 ) ) ;
#233 = AXIS2_PLACEMENT_3D ( 'NONE', #232, #167, #209 ) ;
#234 = APPLICATION_PROTOCOL_DEFINITION ( 'international standard', 'config_control_design', 1994, #49 ) ;
#235 = CC_DESIGN_PERSON_AND_ORGANIZATION_ASSIGNMENT ( #241, #131, ( #133 ) ) ;
#236 = APPROVAL_DATE_TIME ( #152, #194 ) ;
#237 = VERTEX_POINT ( 'NONE', #228 ) ;
#238 = CIRCLE ( 'NONE', #123, 2.613999999999999435 ) ;
#239 = ADVANCED_FACE ( 'NONE', ( #30, #132 ), #115, .T. ) ;
#240 = DIRECTION ( 'NONE',  ( 0.0000000000000000000, 1.000000000000000000, 0.0000000000000000000 ) ) ;
#241 = PERSON_AND_ORGANIZATION ( #157, #80 ) ;
#242 = AXIS2_PLACEMENT_3D ( 'NONE', #91, #21, #94 ) ;
#243 = ADVANCED_FACE ( 'NONE', ( #28, #48 ), #195, .T. ) ;
ENDSEC;
END-ISO-10303-21;
