ISO-10303-21;
HEADER;
FILE_DESCRIPTION (( 'STEP AP203' ),
    '1' );
FILE_NAME ('321425.step',
    '2021-11-26T10:03:41',
    ( '' ),
    ( '' ),
    'SwSTEP 2.0',
    'SolidWorks 2019',
    '' );
FILE_SCHEMA (( 'CONFIG_CONTROL_DESIGN' ));
ENDSEC;

DATA;
#1 = FACE_OUTER_BOUND ( 'NONE', #142, .T. ) ;
#2 = FACE_OUTER_BOUND ( 'NONE', #49, .T. ) ;
#3 = PERSON_AND_ORGANIZATION ( #98, #201 ) ;
#4 = DIRECTION ( 'NONE',  ( 3.491481338843133355E-15, 5.123671146153488667E-16, 1.000000000000000000 ) ) ;
#5 = EDGE_CURVE ( 'NONE', #66, #66, #236, .T. ) ;
#6 = ORIENTED_EDGE ( 'NONE', *, *, #135, .T. ) ;
#7 = PERSON_AND_ORGANIZATION ( #98, #201 ) ;
#8 = AXIS2_PLACEMENT_3D ( 'NONE', #80, #162, #232 ) ;
#9 = DIRECTION ( 'NONE',  ( -3.491481338843133355E-15, 9.031770143711729009E-17, -1.000000000000000000 ) ) ;
#10 = CALENDAR_DATE ( 2021, 26, 11 ) ;
#11 = VERTEX_POINT ( 'NONE', #168 ) ;
#12 = EDGE_CURVE ( 'NONE', #110, #110, #76, .T. ) ;
#13 = CARTESIAN_POINT ( 'NONE',  ( 4.516943194836985490E-14, 2.608999999999998209, 12.93703948689477734 ) ) ;
#14 = AXIS2_PLACEMENT_3D ( 'NONE', #216, #218, #132 ) ;
#15 = CALENDAR_DATE ( 2021, 26, 11 ) ;
#16 = EDGE_LOOP ( 'NONE', ( #212 ) ) ;
#17 = FACE_OUTER_BOUND ( 'NONE', #171, .T. ) ;
#18 = DIRECTION ( 'NONE',  ( -3.491481338843133355E-15, 9.031770143711729009E-17, -1.000000000000000000 ) ) ;
#19 = DIRECTION ( 'NONE',  ( -2.362198475292899367E-30, 1.000000000000000000, -6.648997608190159619E-16 ) ) ;
#20 = APPROVAL_ROLE ( '' ) ;
#21 = CIRCLE ( 'NONE', #225, 2.378059892324147828 ) ;
#22 = PLANE ( 'NONE',  #57 ) ;
#23 = CARTESIAN_POINT ( 'NONE',  ( 2.793185071074506684E-13, 1.599999999999987876, 80.00000000000000000 ) ) ;
#24 = DIRECTION ( 'NONE',  ( 3.153425691349006731E-31, 1.000000000000000000, 9.031770143711729009E-17 ) ) ;
#25 = PERSON_AND_ORGANIZATION_ROLE ( 'classification_officer' ) ;
#26 = FACE_OUTER_BOUND ( 'NONE', #61, .T. ) ;
#27 = CIRCLE ( 'NONE', #14, 2.608999999999999542 ) ;
#28 = EDGE_LOOP ( 'NONE', ( #51 ) ) ;
#29 = EDGE_LOOP ( 'NONE', ( #127 ) ) ;
#30 = CIRCLE ( 'NONE', #190, 1.999999999999991784 ) ;
#31 = CARTESIAN_POINT ( 'NONE',  ( 2.779219145719134403E-13, -7.189289034394536528E-15, 79.60000000000000853 ) ) ;
#32 = AXIS2_PLACEMENT_3D ( 'NONE', #58, #9, #196 ) ;
#33 = DIRECTION ( 'NONE',  ( -3.153425691349006731E-31, -1.000000000000000000, -9.031770143711729009E-17 ) ) ;
#34 = PLANE ( 'NONE',  #214 ) ;
#35 = CALENDAR_DATE ( 2021, 26, 11 ) ;
#36 = EDGE_LOOP ( 'NONE', ( #137 ) ) ;
#37 = MECHANICAL_CONTEXT ( 'NONE', #160, 'mechanical' ) ;
#38 = DIRECTION ( 'NONE',  ( 3.491481338843133355E-15, 5.123671146153488667E-16, 1.000000000000000000 ) ) ;
#39 = PERSON_AND_ORGANIZATION ( #98, #201 ) ;
#40 = DATE_AND_TIME ( #235, #237 ) ;
#41 = APPROVAL ( #59, 'UNSPECIFIED' ) ;
#42 = CALENDAR_DATE ( 2021, 26, 11 ) ;
#43 = PERSON_AND_ORGANIZATION ( #98, #201 ) ;
#44 = CARTESIAN_POINT ( 'NONE',  ( 2.779219145719134403E-13, -7.189289034394536528E-15, 79.60000000000000853 ) ) ;
#45 = PERSON_AND_ORGANIZATION ( #98, #201 ) ;
#46 = CC_DESIGN_PERSON_AND_ORGANIZATION_ASSIGNMENT ( #45, #25, ( #209 ) ) ;
#47 = DIRECTION ( 'NONE',  ( -3.491481338843133355E-15, 9.031770143711729009E-17, -1.000000000000000000 ) ) ;
#48 = SECURITY_CLASSIFICATION_LEVEL ( 'unclassified' ) ;
#49 = EDGE_LOOP ( 'NONE', ( #227 ) ) ;
#50 = CC_DESIGN_PERSON_AND_ORGANIZATION_ASSIGNMENT ( #39, #71, ( #240 ) ) ;
#51 = ORIENTED_EDGE ( 'NONE', *, *, #12, .T. ) ;
#52 = ADVANCED_FACE ( 'NONE', ( #78 ), #124, .T. ) ;
#53 = APPROVAL_PERSON_ORGANIZATION ( #109, #229, #20 ) ;
#54 = FACE_OUTER_BOUND ( 'NONE', #28, .T. ) ;
#55 = EDGE_CURVE ( 'NONE', #136, #136, #21, .T. ) ;
#56 = VERTEX_POINT ( 'NONE', #199 ) ;
#57 = AXIS2_PLACEMENT_3D ( 'NONE', #108, #207, #152 ) ;
#58 = CARTESIAN_POINT ( 'NONE',  ( 2.793185071074506684E-13, -7.225416114969383207E-15, 80.00000000000000000 ) ) ;
#59 = APPROVAL_STATUS ( 'not_yet_approved' ) ;
#60 = CARTESIAN_POINT ( 'NONE',  ( 1.396592535537257878E-15, 2.049468458461402271E-16, 0.4000000000000012990 ) ) ;
#61 = EDGE_LOOP ( 'NONE', ( #230 ) ) ;
#62 = DIRECTION ( 'NONE',  ( -3.491481338843133355E-15, -5.123671146153488667E-16, -1.000000000000000000 ) ) ;
#63 = CC_DESIGN_PERSON_AND_ORGANIZATION_ASSIGNMENT ( #3, #126, ( #67 ) ) ;
#64 = CC_DESIGN_APPROVAL ( #229, ( #240 ) ) ;
#65 = SHAPE_DEFINITION_REPRESENTATION ( #169, #228 ) ;
#66 = VERTEX_POINT ( 'NONE', #13 ) ;
#67 = PRODUCT ( '321425', '321425', '', ( #37 ) ) ;
#68 = CONICAL_SURFACE ( 'NONE', #123, 1.999999999999995337, 0.7853981633974516097 ) ;
#69 = DIRECTION ( 'NONE',  ( 0.0000000000000000000, 1.000000000000000000, 0.0000000000000000000 ) ) ;
#70 = CARTESIAN_POINT ( 'NONE',  ( 2.779219145719134403E-13, 1.999999999999988010, 79.60000000000000853 ) ) ;
#71 = PERSON_AND_ORGANIZATION_ROLE ( 'creator' ) ;
#72 = EDGE_CURVE ( 'NONE', #221, #221, #140, .T. ) ;
#73 = AXIS2_PLACEMENT_3D ( 'NONE', #121, #38, #202 ) ;
#74 = DATE_TIME_ROLE ( 'classification_date' ) ;
#75 = ORIENTED_EDGE ( 'NONE', *, *, #72, .T. ) ;
#76 = CIRCLE ( 'NONE', #188, 1.999999999999995337 ) ;
#77 = AXIS2_PLACEMENT_3D ( 'NONE', #194, #62, #19 ) ;
#78 = FACE_OUTER_BOUND ( 'NONE', #16, .T. ) ;
#79 = ADVANCED_FACE ( 'NONE', ( #174, #217 ), #219, .T. ) ;
#80 = CARTESIAN_POINT ( 'NONE',  ( 0.0000000000000000000, 0.0000000000000000000, 0.0000000000000000000 ) ) ;
#81 = DIRECTION ( 'NONE',  ( -3.491481338843133355E-15, -5.123671146153488667E-16, -1.000000000000000000 ) ) ;
#82 = CARTESIAN_POINT ( 'NONE',  ( 4.516943194836985490E-14, 2.608999999999998209, 12.93703948689477734 ) ) ;
#83 = DIRECTION ( 'NONE',  ( 1.788920219316391506E-30, -1.000000000000000000, 5.123671146153488667E-16 ) ) ;
#84 =( GEOMETRIC_REPRESENTATION_CONTEXT ( 3 ) GLOBAL_UNCERTAINTY_ASSIGNED_CONTEXT ( ( #178 ) ) GLOBAL_UNIT_ASSIGNED_CONTEXT ( ( #176, #107, #205 ) ) REPRESENTATION_CONTEXT ( 'NONE', 'WORKASPACE' ) );
#85 = DIRECTION ( 'NONE',  ( -3.491481338843133355E-15, 9.031770143711729009E-17, -1.000000000000000000 ) ) ;
#86 = COORDINATED_UNIVERSAL_TIME_OFFSET ( 1, 0, .AHEAD. ) ;
#87 = ADVANCED_FACE ( 'NONE', ( #130, #2 ), #117, .T. ) ;
#88 = ORIENTED_EDGE ( 'NONE', *, *, #135, .F. ) ;
#89 = APPROVAL_DATE_TIME ( #187, #229 ) ;
#90 = COORDINATED_UNIVERSAL_TIME_OFFSET ( 1, 0, .AHEAD. ) ;
#91 = FACE_BOUND ( 'NONE', #115, .T. ) ;
#92 = DATE_TIME_ROLE ( 'creation_date' ) ;
#93 = CC_DESIGN_APPROVAL ( #41, ( #226 ) ) ;
#94 = DATE_AND_TIME ( #15, #192 ) ;
#95 = MANIFOLD_SOLID_BREP ( 'Corps-Déplacer/Copier1[1]', #195 ) ;
#96 = CARTESIAN_POINT ( 'NONE',  ( 4.516943194836985490E-14, -1.168443669857559568E-15, 12.93703948689477734 ) ) ;
#97 = APPROVAL_PERSON_ORGANIZATION ( #158, #197, #222 ) ;
#98 = PERSON ( 'UNSPECIFIED', 'UNSPECIFIED', 'UNSPECIFIED', ('UNSPECIFIED'), ('UNSPECIFIED'), ('UNSPECIFIED') ) ;
#99 = CARTESIAN_POINT ( 'NONE',  ( 2.793185071074506684E-13, -7.225416114969383207E-15, 80.00000000000000000 ) ) ;
#100 = DIRECTION ( 'NONE',  ( 1.000000000000000000, 0.0000000000000000000, 0.0000000000000000000 ) ) ;
#101 = DATE_AND_TIME ( #35, #159 ) ;
#102 = ADVANCED_FACE ( 'NONE', ( #54, #1 ), #144, .T. ) ;
#103 = APPROVAL_PERSON_ORGANIZATION ( #43, #41, #145 ) ;
#104 = DIRECTION ( 'NONE',  ( -1.788920219316391506E-30, 1.000000000000000000, -5.123671146153488667E-16 ) ) ;
#105 = COORDINATED_UNIVERSAL_TIME_OFFSET ( 1, 0, .AHEAD. ) ;
#106 = DIRECTION ( 'NONE',  ( -1.771648856469670496E-30, 1.000000000000000000, -5.194529381398549938E-16 ) ) ;
#107 =( NAMED_UNIT ( * ) PLANE_ANGLE_UNIT ( ) SI_UNIT ( $, .RADIAN. ) );
#108 = CARTESIAN_POINT ( 'NONE',  ( -2.127079712062014362E-30, 2.378059892324147828, -6.092198427063054638E-16 ) ) ;
#109 = PERSON_AND_ORGANIZATION ( #98, #201 ) ;
#110 = VERTEX_POINT ( 'NONE', #70 ) ;
#111 = LOCAL_TIME ( 11, 3, 41.00000000000000000, #86 ) ;
#112 = ADVANCED_FACE ( 'NONE', ( #213, #17 ), #125, .T. ) ;
#113 = CARTESIAN_POINT ( 'NONE',  ( 0.0000000000000000000, 2.378059892324147828, 0.0000000000000000000 ) ) ;
#114 = AXIS2_PLACEMENT_3D ( 'NONE', #96, #172, #243 ) ;
#115 = EDGE_LOOP ( 'NONE', ( #75 ) ) ;
#116 = DIRECTION ( 'NONE',  ( 0.0000000000000000000, 1.000000000000000000, 0.0000000000000000000 ) ) ;
#117 = CONICAL_SURFACE ( 'NONE', #114, 2.608999999999999542, 0.5235987755982924874 ) ;
#118 = EDGE_LOOP ( 'NONE', ( #6 ) ) ;
#119 = DESIGN_CONTEXT ( 'detailed design', #186, 'design' ) ;
#120 = ADVANCED_FACE ( 'NONE', ( #215 ), #34, .T. ) ;
#121 = CARTESIAN_POINT ( 'NONE',  ( 4.254159424124028725E-30, 6.242884259476927689E-31, 1.218439685412610928E-15 ) ) ;
#122 = FACE_OUTER_BOUND ( 'NONE', #139, .T. ) ;
#123 = AXIS2_PLACEMENT_3D ( 'NONE', #44, #47, #116 ) ;
#124 = PLANE ( 'NONE',  #154 ) ;
#125 = CYLINDRICAL_SURFACE ( 'NONE', #149, 2.608999999999994657 ) ;
#126 = PERSON_AND_ORGANIZATION_ROLE ( 'design_owner' ) ;
#127 = ORIENTED_EDGE ( 'NONE', *, *, #5, .T. ) ;
#128 = APPLICATION_PROTOCOL_DEFINITION ( 'international standard', 'config_control_design', 1994, #186 ) ;
#129 = CIRCLE ( 'NONE', #211, 2.608999999999997765 ) ;
#130 = FACE_BOUND ( 'NONE', #118, .T. ) ;
#131 = APPROVAL_STATUS ( 'not_yet_approved' ) ;
#132 = DIRECTION ( 'NONE',  ( 0.0000000000000000000, 1.000000000000000000, 0.0000000000000000000 ) ) ;
#133 = DATE_AND_TIME ( #42, #111 ) ;
#134 = CARTESIAN_POINT ( 'NONE',  ( 4.885231259955590439E-14, -1.263712492114123682E-15, 13.99185842870425134 ) ) ;
#135 = EDGE_CURVE ( 'NONE', #11, #11, #30, .T. ) ;
#136 = VERTEX_POINT ( 'NONE', #113 ) ;
#137 = ORIENTED_EDGE ( 'NONE', *, *, #55, .T. ) ;
#138 = COORDINATED_UNIVERSAL_TIME_OFFSET ( 1, 0, .AHEAD. ) ;
#139 = EDGE_LOOP ( 'NONE', ( #233 ) ) ;
#140 = CIRCLE ( 'NONE', #32, 1.599999999999994982 ) ;
#141 = ORIENTED_EDGE ( 'NONE', *, *, #55, .F. ) ;
#142 = EDGE_LOOP ( 'NONE', ( #88 ) ) ;
#143 = CC_DESIGN_SECURITY_CLASSIFICATION ( #209, ( #240 ) ) ;
#144 = CYLINDRICAL_SURFACE ( 'NONE', #8, 1.999999999999993561 ) ;
#145 = APPROVAL_ROLE ( '' ) ;
#146 = DIRECTION ( 'NONE',  ( 0.0000000000000000000, 1.000000000000000000, 0.0000000000000000000 ) ) ;
#147 = DIRECTION ( 'NONE',  ( -3.491481338843133355E-15, -5.123671146153488667E-16, -1.000000000000000000 ) ) ;
#148 = CARTESIAN_POINT ( 'NONE',  ( 4.254159424124028725E-30, 6.242884259476927689E-31, 1.218439685412610928E-15 ) ) ;
#149 = AXIS2_PLACEMENT_3D ( 'NONE', #175, #81, #163 ) ;
#150 = APPROVAL_DATE_TIME ( #101, #41 ) ;
#151 = ADVANCED_FACE ( 'NONE', ( #91, #26 ), #68, .T. ) ;
#152 = DIRECTION ( 'NONE',  ( -1.788920219316391506E-30, 1.000000000000000000, -5.123671146153488667E-16 ) ) ;
#153 = ADVANCED_FACE ( 'NONE', ( #122 ), #166, .T. ) ;
#154 = AXIS2_PLACEMENT_3D ( 'NONE', #99, #161, #33 ) ;
#155 = EDGE_CURVE ( 'NONE', #56, #56, #129, .T. ) ;
#156 = PERSON_AND_ORGANIZATION ( #98, #201 ) ;
#157 = ORIENTED_EDGE ( 'NONE', *, *, #155, .T. ) ;
#158 = PERSON_AND_ORGANIZATION ( #98, #201 ) ;
#159 = LOCAL_TIME ( 11, 3, 41.00000000000000000, #234 ) ;
#160 = APPLICATION_CONTEXT ( 'configuration controlled 3d designs of mechanical parts and assemblies' ) ;
#161 = DIRECTION ( 'NONE',  ( 3.491481338843133355E-15, -9.031770143711729009E-17, 1.000000000000000000 ) ) ;
#162 = DIRECTION ( 'NONE',  ( -3.491481338843133355E-15, 9.031770143711729009E-17, -1.000000000000000000 ) ) ;
#163 = DIRECTION ( 'NONE',  ( -1.788920219316391506E-30, 1.000000000000000000, -5.123671146153488667E-16 ) ) ;
#164 = AXIS2_PLACEMENT_3D ( 'NONE', #238, #185, #100 ) ;
#165 = DIRECTION ( 'NONE',  ( -3.491481338843133355E-15, -5.123671146153488667E-16, -1.000000000000000000 ) ) ;
#166 = PLANE ( 'NONE',  #208 ) ;
#167 = EDGE_LOOP ( 'NONE', ( #210 ) ) ;
#168 = CARTESIAN_POINT ( 'NONE',  ( 4.885231259955590439E-14, 1.999999999999990452, 13.99185842870425134 ) ) ;
#169 = PRODUCT_DEFINITION_SHAPE ( 'NONE', 'NONE',  #226 ) ;
#170 = EDGE_CURVE ( 'NONE', #181, #181, #27, .T. ) ;
#171 = EDGE_LOOP ( 'NONE', ( #183 ) ) ;
#172 = DIRECTION ( 'NONE',  ( -3.491481338843133355E-15, 9.031770143711729009E-17, -1.000000000000000000 ) ) ;
#173 = LOCAL_TIME ( 11, 3, 41.00000000000000000, #105 ) ;
#174 = FACE_OUTER_BOUND ( 'NONE', #200, .T. ) ;
#175 = CARTESIAN_POINT ( 'NONE',  ( 0.0000000000000000000, 0.0000000000000000000, 0.0000000000000000000 ) ) ;
#176 =( LENGTH_UNIT ( ) NAMED_UNIT ( * ) SI_UNIT ( .MILLI., .METRE. ) );
#177 = CARTESIAN_POINT ( 'NONE',  ( 4.516943194836984858E-14, 6.628513593565108800E-15, 12.93703948689477556 ) ) ;
#178 = UNCERTAINTY_MEASURE_WITH_UNIT (LENGTH_MEASURE( 1.000000000000000082E-05 ), #176, 'distance_accuracy_value', 'NONE');
#179 = PRODUCT_RELATED_PRODUCT_CATEGORY ( 'detail', '', ( #67 ) ) ;
#180 = EDGE_LOOP ( 'NONE', ( #141 ) ) ;
#181 = VERTEX_POINT ( 'NONE', #82 ) ;
#182 = MANIFOLD_SOLID_BREP ( 'Corps-Déplacer/Copier1[2]', #189 ) ;
#183 = ORIENTED_EDGE ( 'NONE', *, *, #155, .F. ) ;
#184 = APPROVAL_STATUS ( 'not_yet_approved' ) ;
#185 = DIRECTION ( 'NONE',  ( 0.0000000000000000000, 0.0000000000000000000, 1.000000000000000000 ) ) ;
#186 = APPLICATION_CONTEXT ( 'configuration controlled 3d designs of mechanical parts and assemblies' ) ;
#187 = DATE_AND_TIME ( #10, #173 ) ;
#188 = AXIS2_PLACEMENT_3D ( 'NONE', #31, #85, #146 ) ;
#189 = CLOSED_SHELL ( 'NONE', ( #153, #112, #79, #193 ) ) ;
#190 = AXIS2_PLACEMENT_3D ( 'NONE', #134, #223, #69 ) ;
#191 = CC_DESIGN_PERSON_AND_ORGANIZATION_ASSIGNMENT ( #156, #206, ( #240 ) ) ;
#192 = LOCAL_TIME ( 11, 3, 41.00000000000000000, #138 ) ;
#193 = ADVANCED_FACE ( 'NONE', ( #203 ), #22, .T. ) ;
#194 = CARTESIAN_POINT ( 'NONE',  ( 4.516943194836986121E-14, 6.628513593565111167E-15, 12.93703948689477912 ) ) ;
#195 = CLOSED_SHELL ( 'NONE', ( #52, #151, #102, #87, #120 ) ) ;
#196 = DIRECTION ( 'NONE',  ( 0.0000000000000000000, 1.000000000000000000, 0.0000000000000000000 ) ) ;
#197 = APPROVAL ( #184, 'UNSPECIFIED' ) ;
#198 = CARTESIAN_POINT ( 'NONE',  ( 4.516943194836984858E-14, 2.608999999999998209, 12.93703948689477556 ) ) ;
#199 = CARTESIAN_POINT ( 'NONE',  ( 1.396592535537253342E-15, 2.608999999999997765, 0.3999999999999999667 ) ) ;
#200 = EDGE_LOOP ( 'NONE', ( #157 ) ) ;
#201 = ORGANIZATION ( 'UNSPECIFIED', 'UNSPECIFIED', '' ) ;
#202 = DIRECTION ( 'NONE',  ( 1.788920219316391506E-30, -1.000000000000000000, 5.123671146153488667E-16 ) ) ;
#203 = FACE_OUTER_BOUND ( 'NONE', #36, .T. ) ;
#204 = APPROVAL_DATE_TIME ( #40, #197 ) ;
#205 =( NAMED_UNIT ( * ) SI_UNIT ( $, .STERADIAN. ) SOLID_ANGLE_UNIT ( ) );
#206 = PERSON_AND_ORGANIZATION_ROLE ( 'design_supplier' ) ;
#207 = DIRECTION ( 'NONE',  ( -3.491481338843133355E-15, -5.123671146153488667E-16, -1.000000000000000000 ) ) ;
#208 = AXIS2_PLACEMENT_3D ( 'NONE', #177, #4, #83 ) ;
#209 = SECURITY_CLASSIFICATION ( '', '', #48 ) ;
#210 = ORIENTED_EDGE ( 'NONE', *, *, #170, .T. ) ;
#211 = AXIS2_PLACEMENT_3D ( 'NONE', #60, #147, #106 ) ;
#212 = ORIENTED_EDGE ( 'NONE', *, *, #72, .F. ) ;
#213 = FACE_OUTER_BOUND ( 'NONE', #29, .T. ) ;
#214 = AXIS2_PLACEMENT_3D ( 'NONE', #198, #18, #24 ) ;
#215 = FACE_OUTER_BOUND ( 'NONE', #167, .T. ) ;
#216 = CARTESIAN_POINT ( 'NONE',  ( 4.516943194836985490E-14, -1.168443669857559568E-15, 12.93703948689477734 ) ) ;
#217 = FACE_BOUND ( 'NONE', #180, .T. ) ;
#218 = DIRECTION ( 'NONE',  ( -3.491481338843133355E-15, 9.031770143711729009E-17, -1.000000000000000000 ) ) ;
#219 = CONICAL_SURFACE ( 'NONE', #73, 2.378059892324147828, 0.5235987755982978165 ) ;
#220 = PERSON_AND_ORGANIZATION_ROLE ( 'creator' ) ;
#221 = VERTEX_POINT ( 'NONE', #23 ) ;
#222 = APPROVAL_ROLE ( '' ) ;
#223 = DIRECTION ( 'NONE',  ( -3.491481338843133355E-15, 9.031770143711729009E-17, -1.000000000000000000 ) ) ;
#224 = APPLICATION_PROTOCOL_DEFINITION ( 'international standard', 'config_control_design', 1994, #160 ) ;
#225 = AXIS2_PLACEMENT_3D ( 'NONE', #148, #165, #104 ) ;
#226 = PRODUCT_DEFINITION ( 'UNKNOWN', '', #240, #119 ) ;
#227 = ORIENTED_EDGE ( 'NONE', *, *, #170, .F. ) ;
#228 = ADVANCED_BREP_SHAPE_REPRESENTATION ( '321425', ( #95, #182, #164 ), #84 ) ;
#229 = APPROVAL ( #131, 'UNSPECIFIED' ) ;
#230 = ORIENTED_EDGE ( 'NONE', *, *, #12, .F. ) ;
#231 = CC_DESIGN_DATE_AND_TIME_ASSIGNMENT ( #133, #92, ( #226 ) ) ;
#232 = DIRECTION ( 'NONE',  ( 3.153425691349006731E-31, 1.000000000000000000, 9.031770143711729009E-17 ) ) ;
#233 = ORIENTED_EDGE ( 'NONE', *, *, #5, .F. ) ;
#234 = COORDINATED_UNIVERSAL_TIME_OFFSET ( 1, 0, .AHEAD. ) ;
#235 = CALENDAR_DATE ( 2021, 26, 11 ) ;
#236 = CIRCLE ( 'NONE', #77, 2.608999999999991548 ) ;
#237 = LOCAL_TIME ( 11, 3, 41.00000000000000000, #90 ) ;
#238 = CARTESIAN_POINT ( 'NONE',  ( 0.0000000000000000000, 0.0000000000000000000, 0.0000000000000000000 ) ) ;
#239 = CC_DESIGN_DATE_AND_TIME_ASSIGNMENT ( #94, #74, ( #209 ) ) ;
#240 = PRODUCT_DEFINITION_FORMATION_WITH_SPECIFIED_SOURCE ( 'ANY', '', #67, .NOT_KNOWN. ) ;
#241 = CC_DESIGN_APPROVAL ( #197, ( #209 ) ) ;
#242 = CC_DESIGN_PERSON_AND_ORGANIZATION_ASSIGNMENT ( #7, #220, ( #226 ) ) ;
#243 = DIRECTION ( 'NONE',  ( 0.0000000000000000000, 1.000000000000000000, 0.0000000000000000000 ) ) ;
ENDSEC;
END-ISO-10303-21;
