ISO-10303-21;
HEADER;
FILE_DESCRIPTION (( 'STEP AP203' ),
    '1' );
FILE_NAME ('321424.step',
    '2021-11-26T10:03:41',
    ( '' ),
    ( '' ),
    'SwSTEP 2.0',
    'SolidWorks 2019',
    '' );
FILE_SCHEMA (( 'CONFIG_CONTROL_DESIGN' ));
ENDSEC;

DATA;
#1 = ORIENTED_EDGE ( 'NONE', *, *, #44, .F. ) ;
#2 = EDGE_LOOP ( 'NONE', ( #146 ) ) ;
#3 = CARTESIAN_POINT ( 'NONE',  ( 4.885231259955589808E-14, -1.263712492114123485E-15, 13.99185842870424956 ) ) ;
#4 = PRODUCT_DEFINITION_SHAPE ( 'NONE', 'NONE',  #172 ) ;
#5 = AXIS2_PLACEMENT_3D ( 'NONE', #25, #115, #191 ) ;
#6 = FACE_OUTER_BOUND ( 'NONE', #73, .T. ) ;
#7 = ADVANCED_FACE ( 'NONE', ( #242 ), #180, .T. ) ;
#8 = VERTEX_POINT ( 'NONE', #218 ) ;
#9 = CALENDAR_DATE ( 2021, 26, 11 ) ;
#10 = CC_DESIGN_PERSON_AND_ORGANIZATION_ASSIGNMENT ( #147, #185, ( #79 ) ) ;
#11 = VERTEX_POINT ( 'NONE', #175 ) ;
#12 = PRODUCT ( '321424', '321424', '', ( #119 ) ) ;
#13 = PERSON_AND_ORGANIZATION_ROLE ( 'design_owner' ) ;
#14 = APPLICATION_CONTEXT ( 'configuration controlled 3d designs of mechanical parts and assemblies' ) ;
#15 = ORIENTED_EDGE ( 'NONE', *, *, #26, .F. ) ;
#16 = COORDINATED_UNIVERSAL_TIME_OFFSET ( 1, 0, .AHEAD. ) ;
#17 = ORIENTED_EDGE ( 'NONE', *, *, #162, .T. ) ;
#18 = PLANE ( 'NONE',  #24 ) ;
#19 = PERSON_AND_ORGANIZATION ( #195, #132 ) ;
#20 = DIRECTION ( 'NONE',  ( -1.787151411038748628E-30, 1.000000000000000000, -5.118605077897689297E-16 ) ) ;
#21 = EDGE_CURVE ( 'NONE', #196, #196, #188, .T. ) ;
#22 = DIRECTION ( 'NONE',  ( -3.491481338843133355E-15, -5.118605077897689297E-16, -1.000000000000000000 ) ) ;
#23 = DATE_AND_TIME ( #144, #133 ) ;
#24 = AXIS2_PLACEMENT_3D ( 'NONE', #111, #184, #20 ) ;
#25 = CARTESIAN_POINT ( 'NONE',  ( 2.793185071074506684E-13, -7.225416114969383207E-15, 80.00000000000000000 ) ) ;
#26 = EDGE_CURVE ( 'NONE', #83, #83, #232, .T. ) ;
#27 = PLANE ( 'NONE',  #114 ) ;
#28 = APPLICATION_CONTEXT ( 'configuration controlled 3d designs of mechanical parts and assemblies' ) ;
#29 = FACE_OUTER_BOUND ( 'NONE', #219, .T. ) ;
#30 = APPROVAL_STATUS ( 'not_yet_approved' ) ;
#31 = CC_DESIGN_SECURITY_CLASSIFICATION ( #49, ( #79 ) ) ;
#32 = PERSON_AND_ORGANIZATION_ROLE ( 'creator' ) ;
#33 = APPROVAL_ROLE ( '' ) ;
#34 = CARTESIAN_POINT ( 'NONE',  ( 1.396592535537253342E-15, 2.603999999999997872, 0.3999999999999999667 ) ) ;
#35 = CALENDAR_DATE ( 2021, 26, 11 ) ;
#36 = EDGE_LOOP ( 'NONE', ( #15 ) ) ;
#37 = ORIENTED_EDGE ( 'NONE', *, *, #75, .T. ) ;
#38 = SECURITY_CLASSIFICATION_LEVEL ( 'unclassified' ) ;
#39 = AXIS2_PLACEMENT_3D ( 'NONE', #95, #225, #204 ) ;
#40 = CARTESIAN_POINT ( 'NONE',  ( 2.793185071074506684E-13, -7.225416114969383207E-15, 80.00000000000000000 ) ) ;
#41 = PERSON_AND_ORGANIZATION_ROLE ( 'design_supplier' ) ;
#42 = CARTESIAN_POINT ( 'NONE',  ( 2.779219145719134403E-13, -7.189289034394536528E-15, 79.60000000000000853 ) ) ;
#43 = DIRECTION ( 'NONE',  ( -1.787151411038748628E-30, 1.000000000000000000, -5.118605077897690284E-16 ) ) ;
#44 = EDGE_CURVE ( 'NONE', #176, #176, #98, .T. ) ;
#45 = DIRECTION ( 'NONE',  ( 3.153425691349006731E-31, 1.000000000000000000, 9.031770143711729009E-17 ) ) ;
#46 = CARTESIAN_POINT ( 'NONE',  ( 4.241017335046562406E-30, 6.217444906583465740E-31, 1.214675641500572836E-15 ) ) ;
#47 = DIRECTION ( 'NONE',  ( 0.0000000000000000000, 1.000000000000000000, 0.0000000000000000000 ) ) ;
#48 = CIRCLE ( 'NONE', #5, 1.599999999999994982 ) ;
#49 = SECURITY_CLASSIFICATION ( '', '', #38 ) ;
#50 = CONICAL_SURFACE ( 'NONE', #169, 2.373059892324147935, 0.5235987755982978165 ) ;
#51 = EDGE_CURVE ( 'NONE', #8, #8, #63, .T. ) ;
#52 = CARTESIAN_POINT ( 'NONE',  ( 4.519966906373262994E-14, 2.603999999999998316, 12.94569974093262132 ) ) ;
#53 = FACE_BOUND ( 'NONE', #131, .T. ) ;
#54 = APPROVAL_DATE_TIME ( #23, #81 ) ;
#55 = ORIENTED_EDGE ( 'NONE', *, *, #44, .T. ) ;
#56 = DIRECTION ( 'NONE',  ( -3.491481338843133355E-15, -5.118605077897689297E-16, -1.000000000000000000 ) ) ;
#57 = CC_DESIGN_PERSON_AND_ORGANIZATION_ASSIGNMENT ( #234, #32, ( #172 ) ) ;
#58 = APPROVAL_ROLE ( '' ) ;
#59 = FACE_OUTER_BOUND ( 'NONE', #94, .T. ) ;
#60 = AXIS2_PLACEMENT_3D ( 'NONE', #149, #56, #112 ) ;
#61 = DIRECTION ( 'NONE',  ( -3.491481338843133355E-15, -5.118605077897689297E-16, -1.000000000000000000 ) ) ;
#62 = DIRECTION ( 'NONE',  ( 3.491481338843133355E-15, 5.118605077897689297E-16, 1.000000000000000000 ) ) ;
#63 = CIRCLE ( 'NONE', #88, 1.999999999999991784 ) ;
#64 =( NAMED_UNIT ( * ) PLANE_ANGLE_UNIT ( ) SI_UNIT ( $, .RADIAN. ) );
#65 = CARTESIAN_POINT ( 'NONE',  ( 0.0000000000000000000, 0.0000000000000000000, 0.0000000000000000000 ) ) ;
#66 = DIRECTION ( 'NONE',  ( 3.153425691349006731E-31, 1.000000000000000000, 9.031770143711729009E-17 ) ) ;
#67 =( NAMED_UNIT ( * ) SI_UNIT ( $, .STERADIAN. ) SOLID_ANGLE_UNIT ( ) );
#68 = APPLICATION_PROTOCOL_DEFINITION ( 'international standard', 'config_control_design', 1994, #28 ) ;
#69 = MANIFOLD_SOLID_BREP ( 'Corps-Déplacer/Copier1[2]', #91 ) ;
#70 = SHAPE_DEFINITION_REPRESENTATION ( #4, #190 ) ;
#71 =( GEOMETRIC_REPRESENTATION_CONTEXT ( 3 ) GLOBAL_UNCERTAINTY_ASSIGNED_CONTEXT ( ( #183 ) ) GLOBAL_UNIT_ASSIGNED_CONTEXT ( ( #238, #64, #67 ) ) REPRESENTATION_CONTEXT ( 'NONE', 'WORKASPACE' ) );
#72 = APPROVAL_PERSON_ORGANIZATION ( #96, #81, #58 ) ;
#73 = EDGE_LOOP ( 'NONE', ( #107 ) ) ;
#74 = PERSON_AND_ORGANIZATION ( #195, #132 ) ;
#75 = EDGE_CURVE ( 'NONE', #104, #104, #216, .T. ) ;
#76 = DIRECTION ( 'NONE',  ( -3.491481338843133355E-15, 9.031770143711729009E-17, -1.000000000000000000 ) ) ;
#77 = CARTESIAN_POINT ( 'NONE',  ( 0.0000000000000000000, 0.0000000000000000000, 0.0000000000000000000 ) ) ;
#78 = CYLINDRICAL_SURFACE ( 'NONE', #105, 1.999999999999993561 ) ;
#79 = PRODUCT_DEFINITION_FORMATION_WITH_SPECIFIED_SOURCE ( 'ANY', '', #12, .NOT_KNOWN. ) ;
#80 = CARTESIAN_POINT ( 'NONE',  ( 4.519966906373263625E-14, 6.626392443087651612E-15, 12.94569974093262310 ) ) ;
#81 = APPROVAL ( #109, 'UNSPECIFIED' ) ;
#82 = AXIS2_PLACEMENT_3D ( 'NONE', #135, #136, #214 ) ;
#83 = VERTEX_POINT ( 'NONE', #215 ) ;
#84 = CC_DESIGN_APPROVAL ( #194, ( #79 ) ) ;
#85 = ADVANCED_FACE ( 'NONE', ( #108 ), #18, .T. ) ;
#86 = DATE_AND_TIME ( #9, #152 ) ;
#87 = DIRECTION ( 'NONE',  ( 1.000000000000000000, 0.0000000000000000000, 0.0000000000000000000 ) ) ;
#88 = AXIS2_PLACEMENT_3D ( 'NONE', #3, #240, #168 ) ;
#89 = ORIENTED_EDGE ( 'NONE', *, *, #51, .T. ) ;
#90 = DESIGN_CONTEXT ( 'detailed design', #28, 'design' ) ;
#91 = CLOSED_SHELL ( 'NONE', ( #226, #177, #159, #85 ) ) ;
#92 = DIRECTION ( 'NONE',  ( 0.0000000000000000000, 1.000000000000000000, 0.0000000000000000000 ) ) ;
#93 = DATE_TIME_ROLE ( 'classification_date' ) ;
#94 = EDGE_LOOP ( 'NONE', ( #221 ) ) ;
#95 = CARTESIAN_POINT ( 'NONE',  ( 4.241017335046562406E-30, 6.217444906583465740E-31, 1.214675641500572836E-15 ) ) ;
#96 = PERSON_AND_ORGANIZATION ( #195, #132 ) ;
#97 = APPROVAL ( #30, 'UNSPECIFIED' ) ;
#98 = CIRCLE ( 'NONE', #39, 2.373059892324147935 ) ;
#99 = DIRECTION ( 'NONE',  ( 0.0000000000000000000, 1.000000000000000000, 0.0000000000000000000 ) ) ;
#100 = COORDINATED_UNIVERSAL_TIME_OFFSET ( 1, 0, .AHEAD. ) ;
#101 = CALENDAR_DATE ( 2021, 26, 11 ) ;
#102 = COORDINATED_UNIVERSAL_TIME_OFFSET ( 1, 0, .AHEAD. ) ;
#103 = COORDINATED_UNIVERSAL_TIME_OFFSET ( 1, 0, .AHEAD. ) ;
#104 = VERTEX_POINT ( 'NONE', #217 ) ;
#105 = AXIS2_PLACEMENT_3D ( 'NONE', #151, #230, #45 ) ;
#106 = DATE_AND_TIME ( #35, #138 ) ;
#107 = ORIENTED_EDGE ( 'NONE', *, *, #51, .F. ) ;
#108 = FACE_OUTER_BOUND ( 'NONE', #179, .T. ) ;
#109 = APPROVAL_STATUS ( 'not_yet_approved' ) ;
#110 = CC_DESIGN_APPROVAL ( #81, ( #49 ) ) ;
#111 = CARTESIAN_POINT ( 'NONE',  ( -2.120508667523281203E-30, 2.373059892324147935, -6.073378207502864178E-16 ) ) ;
#112 = DIRECTION ( 'NONE',  ( -1.775050639988237207E-30, 1.000000000000000000, -5.204503516155459578E-16 ) ) ;
#113 = APPROVAL_DATE_TIME ( #243, #194 ) ;
#114 = AXIS2_PLACEMENT_3D ( 'NONE', #80, #153, #213 ) ;
#115 = DIRECTION ( 'NONE',  ( -3.491481338843133355E-15, 9.031770143711729009E-17, -1.000000000000000000 ) ) ;
#116 = ADVANCED_FACE ( 'NONE', ( #53, #125 ), #156, .T. ) ;
#117 = AXIS2_PLACEMENT_3D ( 'NONE', #166, #22, #163 ) ;
#118 = DIRECTION ( 'NONE',  ( 1.787151411038748979E-30, -1.000000000000000000, 5.118605077897689297E-16 ) ) ;
#119 = MECHANICAL_CONTEXT ( 'NONE', #14, 'mechanical' ) ;
#120 = AXIS2_PLACEMENT_3D ( 'NONE', #42, #76, #92 ) ;
#121 = PERSON_AND_ORGANIZATION ( #195, #132 ) ;
#122 = APPROVAL_DATE_TIME ( #157, #97 ) ;
#123 = APPLICATION_PROTOCOL_DEFINITION ( 'international standard', 'config_control_design', 1994, #14 ) ;
#124 = PERSON_AND_ORGANIZATION ( #195, #132 ) ;
#125 = FACE_OUTER_BOUND ( 'NONE', #205, .T. ) ;
#126 = EDGE_LOOP ( 'NONE', ( #37 ) ) ;
#127 = PRODUCT_RELATED_PRODUCT_CATEGORY ( 'detail', '', ( #12 ) ) ;
#128 = EDGE_LOOP ( 'NONE', ( #208 ) ) ;
#129 = LOCAL_TIME ( 11, 3, 41.00000000000000000, #103 ) ;
#130 = ORIENTED_EDGE ( 'NONE', *, *, #162, .F. ) ;
#131 = EDGE_LOOP ( 'NONE', ( #89 ) ) ;
#132 = ORGANIZATION ( 'UNSPECIFIED', 'UNSPECIFIED', '' ) ;
#133 = LOCAL_TIME ( 11, 3, 41.00000000000000000, #167 ) ;
#134 = FACE_BOUND ( 'NONE', #209, .T. ) ;
#135 = CARTESIAN_POINT ( 'NONE',  ( 4.519966906373262994E-14, -1.169225844096119061E-15, 12.94569974093262132 ) ) ;
#136 = DIRECTION ( 'NONE',  ( -3.491481338843133355E-15, 9.031770143711729009E-17, -1.000000000000000000 ) ) ;
#137 = CC_DESIGN_PERSON_AND_ORGANIZATION_ASSIGNMENT ( #121, #13, ( #12 ) ) ;
#138 = LOCAL_TIME ( 11, 3, 41.00000000000000000, #16 ) ;
#139 = CARTESIAN_POINT ( 'NONE',  ( 0.0000000000000000000, 2.373059892324147935, 0.0000000000000000000 ) ) ;
#140 = PLANE ( 'NONE',  #143 ) ;
#141 = ORIENTED_EDGE ( 'NONE', *, *, #21, .F. ) ;
#142 = CIRCLE ( 'NONE', #82, 2.603999999999999648 ) ;
#143 = AXIS2_PLACEMENT_3D ( 'NONE', #233, #160, #66 ) ;
#144 = CALENDAR_DATE ( 2021, 26, 11 ) ;
#145 = ORIENTED_EDGE ( 'NONE', *, *, #212, .F. ) ;
#146 = ORIENTED_EDGE ( 'NONE', *, *, #212, .T. ) ;
#147 = PERSON_AND_ORGANIZATION ( #195, #132 ) ;
#148 = CC_DESIGN_PERSON_AND_ORGANIZATION_ASSIGNMENT ( #74, #41, ( #79 ) ) ;
#149 = CARTESIAN_POINT ( 'NONE',  ( 1.396592535537257878E-15, 2.047442031159082375E-16, 0.4000000000000012990 ) ) ;
#150 = MANIFOLD_SOLID_BREP ( 'Corps-Déplacer/Copier1[1]', #201 ) ;
#151 = CARTESIAN_POINT ( 'NONE',  ( 0.0000000000000000000, 0.0000000000000000000, 0.0000000000000000000 ) ) ;
#152 = LOCAL_TIME ( 11, 3, 41.00000000000000000, #102 ) ;
#153 = DIRECTION ( 'NONE',  ( 3.491481338843133355E-15, 5.118605077897689297E-16, 1.000000000000000000 ) ) ;
#154 = DIRECTION ( 'NONE',  ( -3.491481338843133355E-15, 9.031770143711729009E-17, -1.000000000000000000 ) ) ;
#155 = FACE_OUTER_BOUND ( 'NONE', #128, .T. ) ;
#156 = CONICAL_SURFACE ( 'NONE', #174, 2.603999999999999648, 0.5235987755982929315 ) ;
#157 = DATE_AND_TIME ( #101, #206 ) ;
#158 = DATE_TIME_ROLE ( 'creation_date' ) ;
#159 = ADVANCED_FACE ( 'NONE', ( #155, #134 ), #50, .T. ) ;
#160 = DIRECTION ( 'NONE',  ( -3.491481338843133355E-15, 9.031770143711729009E-17, -1.000000000000000000 ) ) ;
#161 = EDGE_LOOP ( 'NONE', ( #141 ) ) ;
#162 = EDGE_CURVE ( 'NONE', #199, #199, #142, .T. ) ;
#163 = DIRECTION ( 'NONE',  ( -2.366734186650988548E-30, 1.000000000000000000, -6.661764500679003722E-16 ) ) ;
#164 = AXIS2_PLACEMENT_3D ( 'NONE', #40, #222, #186 ) ;
#165 = CC_DESIGN_PERSON_AND_ORGANIZATION_ASSIGNMENT ( #19, #187, ( #49 ) ) ;
#166 = CARTESIAN_POINT ( 'NONE',  ( 4.519966906373263625E-14, 6.626392443087651612E-15, 12.94569974093262310 ) ) ;
#167 = COORDINATED_UNIVERSAL_TIME_OFFSET ( 1, 0, .AHEAD. ) ;
#168 = DIRECTION ( 'NONE',  ( 0.0000000000000000000, 1.000000000000000000, 0.0000000000000000000 ) ) ;
#169 = AXIS2_PLACEMENT_3D ( 'NONE', #46, #62, #118 ) ;
#170 = CYLINDRICAL_SURFACE ( 'NONE', #182, 2.603999999999994763 ) ;
#171 = FACE_OUTER_BOUND ( 'NONE', #126, .T. ) ;
#172 = PRODUCT_DEFINITION ( 'UNKNOWN', '', #79, #90 ) ;
#173 = FACE_OUTER_BOUND ( 'NONE', #36, .T. ) ;
#174 = AXIS2_PLACEMENT_3D ( 'NONE', #228, #154, #47 ) ;
#175 = CARTESIAN_POINT ( 'NONE',  ( 2.793185071074506684E-13, 1.599999999999987876, 80.00000000000000000 ) ) ;
#176 = VERTEX_POINT ( 'NONE', #139 ) ;
#177 = ADVANCED_FACE ( 'NONE', ( #29, #192 ), #170, .T. ) ;
#178 = CALENDAR_DATE ( 2021, 26, 11 ) ;
#179 = EDGE_LOOP ( 'NONE', ( #55 ) ) ;
#180 = PLANE ( 'NONE',  #164 ) ;
#181 = ORIENTED_EDGE ( 'NONE', *, *, #26, .T. ) ;
#182 = AXIS2_PLACEMENT_3D ( 'NONE', #77, #61, #43 ) ;
#183 = UNCERTAINTY_MEASURE_WITH_UNIT (LENGTH_MEASURE( 1.000000000000000082E-05 ), #238, 'distance_accuracy_value', 'NONE');
#184 = DIRECTION ( 'NONE',  ( -3.491481338843133355E-15, -5.118605077897689297E-16, -1.000000000000000000 ) ) ;
#185 = PERSON_AND_ORGANIZATION_ROLE ( 'creator' ) ;
#186 = DIRECTION ( 'NONE',  ( -3.153425691349006731E-31, -1.000000000000000000, -9.031770143711729009E-17 ) ) ;
#187 = PERSON_AND_ORGANIZATION_ROLE ( 'classification_officer' ) ;
#188 = CIRCLE ( 'NONE', #60, 2.603999999999997872 ) ;
#189 = CARTESIAN_POINT ( 'NONE',  ( 2.779219145719134403E-13, -7.189289034394536528E-15, 79.60000000000000853 ) ) ;
#190 = ADVANCED_BREP_SHAPE_REPRESENTATION ( '321424', ( #150, #69, #224 ), #71 ) ;
#191 = DIRECTION ( 'NONE',  ( 0.0000000000000000000, 1.000000000000000000, 0.0000000000000000000 ) ) ;
#192 = FACE_OUTER_BOUND ( 'NONE', #161, .T. ) ;
#193 = APPROVAL_PERSON_ORGANIZATION ( #124, #97, #202 ) ;
#194 = APPROVAL ( #235, 'UNSPECIFIED' ) ;
#195 = PERSON ( 'UNSPECIFIED', 'UNSPECIFIED', 'UNSPECIFIED', ('UNSPECIFIED'), ('UNSPECIFIED'), ('UNSPECIFIED') ) ;
#196 = VERTEX_POINT ( 'NONE', #34 ) ;
#197 = CC_DESIGN_DATE_AND_TIME_ASSIGNMENT ( #106, #93, ( #49 ) ) ;
#198 = PERSON_AND_ORGANIZATION ( #195, #132 ) ;
#199 = VERTEX_POINT ( 'NONE', #52 ) ;
#200 = CC_DESIGN_DATE_AND_TIME_ASSIGNMENT ( #86, #158, ( #172 ) ) ;
#201 = CLOSED_SHELL ( 'NONE', ( #7, #207, #210, #116, #237 ) ) ;
#202 = APPROVAL_ROLE ( '' ) ;
#203 = EDGE_LOOP ( 'NONE', ( #145 ) ) ;
#204 = DIRECTION ( 'NONE',  ( -1.787151411038748979E-30, 1.000000000000000000, -5.118605077897689297E-16 ) ) ;
#205 = EDGE_LOOP ( 'NONE', ( #130 ) ) ;
#206 = LOCAL_TIME ( 11, 3, 41.00000000000000000, #100 ) ;
#207 = ADVANCED_FACE ( 'NONE', ( #227, #59 ), #241, .T. ) ;
#208 = ORIENTED_EDGE ( 'NONE', *, *, #21, .T. ) ;
#209 = EDGE_LOOP ( 'NONE', ( #1 ) ) ;
#210 = ADVANCED_FACE ( 'NONE', ( #171, #6 ), #78, .T. ) ;
#211 = DIRECTION ( 'NONE',  ( -3.491481338843133355E-15, 9.031770143711729009E-17, -1.000000000000000000 ) ) ;
#212 = EDGE_CURVE ( 'NONE', #11, #11, #48, .T. ) ;
#213 = DIRECTION ( 'NONE',  ( 1.787151411038748628E-30, -1.000000000000000000, 5.118605077897689297E-16 ) ) ;
#214 = DIRECTION ( 'NONE',  ( 0.0000000000000000000, 1.000000000000000000, 0.0000000000000000000 ) ) ;
#215 = CARTESIAN_POINT ( 'NONE',  ( 4.519966906373262994E-14, 2.603999999999998316, 12.94569974093262132 ) ) ;
#216 = CIRCLE ( 'NONE', #120, 1.999999999999995337 ) ;
#217 = CARTESIAN_POINT ( 'NONE',  ( 2.779219145719134403E-13, 1.999999999999988010, 79.60000000000000853 ) ) ;
#218 = CARTESIAN_POINT ( 'NONE',  ( 4.885231259955589808E-14, 1.999999999999990452, 13.99185842870424956 ) ) ;
#219 = EDGE_LOOP ( 'NONE', ( #181 ) ) ;
#220 = AXIS2_PLACEMENT_3D ( 'NONE', #189, #211, #99 ) ;
#221 = ORIENTED_EDGE ( 'NONE', *, *, #75, .F. ) ;
#222 = DIRECTION ( 'NONE',  ( 3.491481338843133355E-15, -9.031770143711729009E-17, 1.000000000000000000 ) ) ;
#223 = EDGE_LOOP ( 'NONE', ( #17 ) ) ;
#224 = AXIS2_PLACEMENT_3D ( 'NONE', #65, #239, #87 ) ;
#225 = DIRECTION ( 'NONE',  ( -3.491481338843133355E-15, -5.118605077897689297E-16, -1.000000000000000000 ) ) ;
#226 = ADVANCED_FACE ( 'NONE', ( #173 ), #27, .T. ) ;
#227 = FACE_BOUND ( 'NONE', #2, .T. ) ;
#228 = CARTESIAN_POINT ( 'NONE',  ( 4.519966906373262994E-14, -1.169225844096119061E-15, 12.94569974093262132 ) ) ;
#229 = CC_DESIGN_APPROVAL ( #97, ( #172 ) ) ;
#230 = DIRECTION ( 'NONE',  ( -3.491481338843133355E-15, 9.031770143711729009E-17, -1.000000000000000000 ) ) ;
#231 = FACE_OUTER_BOUND ( 'NONE', #223, .T. ) ;
#232 = CIRCLE ( 'NONE', #117, 2.603999999999991655 ) ;
#233 = CARTESIAN_POINT ( 'NONE',  ( 4.519966906373263625E-14, 2.603999999999998316, 12.94569974093262310 ) ) ;
#234 = PERSON_AND_ORGANIZATION ( #195, #132 ) ;
#235 = APPROVAL_STATUS ( 'not_yet_approved' ) ;
#236 = APPROVAL_PERSON_ORGANIZATION ( #198, #194, #33 ) ;
#237 = ADVANCED_FACE ( 'NONE', ( #231 ), #140, .T. ) ;
#238 =( LENGTH_UNIT ( ) NAMED_UNIT ( * ) SI_UNIT ( .MILLI., .METRE. ) );
#239 = DIRECTION ( 'NONE',  ( 0.0000000000000000000, 0.0000000000000000000, 1.000000000000000000 ) ) ;
#240 = DIRECTION ( 'NONE',  ( -3.491481338843133355E-15, 9.031770143711729009E-17, -1.000000000000000000 ) ) ;
#241 = CONICAL_SURFACE ( 'NONE', #220, 1.999999999999995337, 0.7853981633974516097 ) ;
#242 = FACE_OUTER_BOUND ( 'NONE', #203, .T. ) ;
#243 = DATE_AND_TIME ( #178, #129 ) ;
ENDSEC;
END-ISO-10303-21;
