ISO-10303-21;
HEADER;
FILE_DESCRIPTION (( 'STEP AP203' ),
    '1' );
FILE_NAME ('321423.step',
    '2021-11-26T10:03:40',
    ( '' ),
    ( '' ),
    'SwSTEP 2.0',
    'SolidWorks 2019',
    '' );
FILE_SCHEMA (( 'CONFIG_CONTROL_DESIGN' ));
ENDSEC;

DATA;
#1 = EDGE_LOOP ( 'NONE', ( #118 ) ) ;
#2 = DATE_AND_TIME ( #54, #233 ) ;
#3 = EDGE_LOOP ( 'NONE', ( #42 ) ) ;
#4 = DIRECTION ( 'NONE',  ( 0.0000000000000000000, 1.000000000000000000, 0.0000000000000000000 ) ) ;
#5 = CC_DESIGN_PERSON_AND_ORGANIZATION_ASSIGNMENT ( #110, #144, ( #99 ) ) ;
#6 = AXIS2_PLACEMENT_3D ( 'NONE', #132, #205, #63 ) ;
#7 = DATE_AND_TIME ( #200, #148 ) ;
#8 = APPROVAL_PERSON_ORGANIZATION ( #9, #61, #187 ) ;
#9 = PERSON_AND_ORGANIZATION ( #199, #96 ) ;
#10 = VERTEX_POINT ( 'NONE', #216 ) ;
#11 = APPLICATION_PROTOCOL_DEFINITION ( 'international standard', 'config_control_design', 1994, #165 ) ;
#12 = AXIS2_PLACEMENT_3D ( 'NONE', #53, #235, #127 ) ;
#13 = DIRECTION ( 'NONE',  ( -3.491481338843133355E-15, -5.113545783181939887E-16, -1.000000000000000000 ) ) ;
#14 = CARTESIAN_POINT ( 'NONE',  ( 4.522990617909540498E-14, 2.598999999999998423, 12.95435999497046353 ) ) ;
#15 = APPROVAL_ROLE ( '' ) ;
#16 = APPROVAL_PERSON_ORGANIZATION ( #133, #150, #15 ) ;
#17 = CALENDAR_DATE ( 2021, 26, 11 ) ;
#18 = ORIENTED_EDGE ( 'NONE', *, *, #176, .F. ) ;
#19 = CC_DESIGN_DATE_AND_TIME_ASSIGNMENT ( #157, #33, ( #38 ) ) ;
#20 = ORIENTED_EDGE ( 'NONE', *, *, #190, .T. ) ;
#21 = ORIENTED_EDGE ( 'NONE', *, *, #202, .F. ) ;
#22 = EDGE_CURVE ( 'NONE', #232, #232, #68, .T. ) ;
#23 = EDGE_LOOP ( 'NONE', ( #18 ) ) ;
#24 = FACE_OUTER_BOUND ( 'NONE', #222, .T. ) ;
#25 = EDGE_LOOP ( 'NONE', ( #98 ) ) ;
#26 = VERTEX_POINT ( 'NONE', #67 ) ;
#27 = CIRCLE ( 'NONE', #109, 1.599999999999994982 ) ;
#28 = DIRECTION ( 'NONE',  ( -3.491481338843133355E-15, 9.031770143711729009E-17, -1.000000000000000000 ) ) ;
#29 = DIRECTION ( 'NONE',  ( -3.491481338843133355E-15, 9.031770143711729009E-17, -1.000000000000000000 ) ) ;
#30 = ADVANCED_FACE ( 'NONE', ( #57 ), #135, .T. ) ;
#31 = VERTEX_POINT ( 'NONE', #14 ) ;
#32 = PLANE ( 'NONE',  #124 ) ;
#33 = DATE_TIME_ROLE ( 'creation_date' ) ;
#34 = AXIS2_PLACEMENT_3D ( 'NONE', #84, #28, #171 ) ;
#35 = CIRCLE ( 'NONE', #175, 1.999999999999991784 ) ;
#36 = EDGE_LOOP ( 'NONE', ( #149 ) ) ;
#37 = DIRECTION ( 'NONE',  ( 3.153425691349006731E-31, 1.000000000000000000, 9.031770143711729009E-17 ) ) ;
#38 = PRODUCT_DEFINITION ( 'UNKNOWN', '', #99, #163 ) ;
#39 = AXIS2_PLACEMENT_3D ( 'NONE', #43, #69, #4 ) ;
#40 = CYLINDRICAL_SURFACE ( 'NONE', #178, 2.598999999999994870 ) ;
#41 = FACE_BOUND ( 'NONE', #83, .T. ) ;
#42 = ORIENTED_EDGE ( 'NONE', *, *, #22, .T. ) ;
#43 = CARTESIAN_POINT ( 'NONE',  ( 4.522990617909540498E-14, -1.170008018334678752E-15, 12.95435999497046353 ) ) ;
#44 = DIRECTION ( 'NONE',  ( 1.785384967729973979E-30, -1.000000000000000000, 5.113545783181940873E-16 ) ) ;
#45 = LOCAL_TIME ( 11, 3, 40.00000000000000000, #89 ) ;
#46 = CC_DESIGN_DATE_AND_TIME_ASSIGNMENT ( #2, #56, ( #155 ) ) ;
#47 = VERTEX_POINT ( 'NONE', #123 ) ;
#48 = ADVANCED_FACE ( 'NONE', ( #208, #97 ), #167, .T. ) ;
#49 = VERTEX_POINT ( 'NONE', #92 ) ;
#50 = DIRECTION ( 'NONE',  ( -3.491481338843133355E-15, 9.031770143711729009E-17, -1.000000000000000000 ) ) ;
#51 = PERSON_AND_ORGANIZATION_ROLE ( 'creator' ) ;
#52 = DIRECTION ( 'NONE',  ( -1.785384967729973979E-30, 1.000000000000000000, -5.113545783181940873E-16 ) ) ;
#53 = CARTESIAN_POINT ( 'NONE',  ( 0.0000000000000000000, 0.0000000000000000000, 0.0000000000000000000 ) ) ;
#54 = CALENDAR_DATE ( 2021, 26, 11 ) ;
#55 = EDGE_CURVE ( 'NONE', #26, #26, #35, .T. ) ;
#56 = DATE_TIME_ROLE ( 'classification_date' ) ;
#57 = FACE_OUTER_BOUND ( 'NONE', #81, .T. ) ;
#58 = AXIS2_PLACEMENT_3D ( 'NONE', #226, #206, #195 ) ;
#59 = COORDINATED_UNIVERSAL_TIME_OFFSET ( 1, 0, .AHEAD. ) ;
#60 = SHAPE_DEFINITION_REPRESENTATION ( #238, #193 ) ;
#61 = APPROVAL ( #217, 'UNSPECIFIED' ) ;
#62 = FACE_OUTER_BOUND ( 'NONE', #228, .T. ) ;
#63 = DIRECTION ( 'NONE',  ( 3.153425691349006731E-31, 1.000000000000000000, 9.031770143711729009E-17 ) ) ;
#64 = LOCAL_TIME ( 11, 3, 40.00000000000000000, #107 ) ;
#65 = ORIENTED_EDGE ( 'NONE', *, *, #86, .T. ) ;
#66 = DIRECTION ( 'NONE',  ( -1.785384967729973979E-30, 1.000000000000000000, -5.113545783181939887E-16 ) ) ;
#67 = CARTESIAN_POINT ( 'NONE',  ( 4.885231259955589808E-14, 1.999999999999990452, 13.99185842870424956 ) ) ;
#68 = CIRCLE ( 'NONE', #58, 2.598999999999997979 ) ;
#69 = DIRECTION ( 'NONE',  ( -3.491481338843133355E-15, 9.031770143711729009E-17, -1.000000000000000000 ) ) ;
#70 = CIRCLE ( 'NONE', #242, 2.598999999999991761 ) ;
#71 = ADVANCED_FACE ( 'NONE', ( #111, #183 ), #186, .T. ) ;
#72 =( LENGTH_UNIT ( ) NAMED_UNIT ( * ) SI_UNIT ( .MILLI., .METRE. ) );
#73 = CALENDAR_DATE ( 2021, 26, 11 ) ;
#74 = CARTESIAN_POINT ( 'NONE',  ( 4.227898534439794528E-30, 6.192086001430307938E-31, 1.210918267671642800E-15 ) ) ;
#75 = PERSON_AND_ORGANIZATION_ROLE ( 'creator' ) ;
#76 = CONICAL_SURFACE ( 'NONE', #34, 1.999999999999995337, 0.7853981633974516097 ) ;
#77 = APPROVAL_DATE_TIME ( #243, #150 ) ;
#78 = ADVANCED_FACE ( 'NONE', ( #158, #211 ), #145, .T. ) ;
#79 = EDGE_LOOP ( 'NONE', ( #224 ) ) ;
#80 = ORIENTED_EDGE ( 'NONE', *, *, #22, .F. ) ;
#81 = EDGE_LOOP ( 'NONE', ( #103 ) ) ;
#82 = DIRECTION ( 'NONE',  ( 1.785384967729973979E-30, -1.000000000000000000, 5.113545783181939887E-16 ) ) ;
#83 = EDGE_LOOP ( 'NONE', ( #189 ) ) ;
#84 = CARTESIAN_POINT ( 'NONE',  ( 2.779219145719134403E-13, -7.189289034394536528E-15, 79.60000000000000853 ) ) ;
#85 = CARTESIAN_POINT ( 'NONE',  ( 2.793185071074506684E-13, -7.225416114969383207E-15, 80.00000000000000000 ) ) ;
#86 = EDGE_CURVE ( 'NONE', #49, #49, #140, .T. ) ;
#87 = PERSON_AND_ORGANIZATION ( #199, #96 ) ;
#88 = LOCAL_TIME ( 11, 3, 40.00000000000000000, #59 ) ;
#89 = COORDINATED_UNIVERSAL_TIME_OFFSET ( 1, 0, .AHEAD. ) ;
#90 = APPROVAL_DATE_TIME ( #156, #241 ) ;
#91 = DIRECTION ( 'NONE',  ( 3.491481338843133355E-15, 5.113545783181939887E-16, 1.000000000000000000 ) ) ;
#92 = CARTESIAN_POINT ( 'NONE',  ( 0.0000000000000000000, 2.368059892324148041, 0.0000000000000000000 ) ) ;
#93 = UNCERTAINTY_MEASURE_WITH_UNIT (LENGTH_MEASURE( 1.000000000000000082E-05 ), #72, 'distance_accuracy_value', 'NONE');
#94 = ADVANCED_FACE ( 'NONE', ( #201 ), #32, .T. ) ;
#95 = CALENDAR_DATE ( 2021, 26, 11 ) ;
#96 = ORGANIZATION ( 'UNSPECIFIED', 'UNSPECIFIED', '' ) ;
#97 = FACE_OUTER_BOUND ( 'NONE', #79, .T. ) ;
#98 = ORIENTED_EDGE ( 'NONE', *, *, #166, .F. ) ;
#99 = PRODUCT_DEFINITION_FORMATION_WITH_SPECIFIED_SOURCE ( 'ANY', '', #214, .NOT_KNOWN. ) ;
#100 = DIRECTION ( 'NONE',  ( -3.491481338843133355E-15, 9.031770143711729009E-17, -1.000000000000000000 ) ) ;
#101 = MANIFOLD_SOLID_BREP ( 'Corps-Déplacer/Copier1[1]', #218 ) ;
#102 = DIRECTION ( 'NONE',  ( -3.153425691349006731E-31, -1.000000000000000000, -9.031770143711729009E-17 ) ) ;
#103 = ORIENTED_EDGE ( 'NONE', *, *, #166, .T. ) ;
#104 = AXIS2_PLACEMENT_3D ( 'NONE', #112, #91, #44 ) ;
#105 = PLANE ( 'NONE',  #136 ) ;
#106 = DIRECTION ( 'NONE',  ( 0.0000000000000000000, 1.000000000000000000, 0.0000000000000000000 ) ) ;
#107 = COORDINATED_UNIVERSAL_TIME_OFFSET ( 1, 0, .AHEAD. ) ;
#108 = PERSON_AND_ORGANIZATION ( #199, #96 ) ;
#109 = AXIS2_PLACEMENT_3D ( 'NONE', #85, #230, #225 ) ;
#110 = PERSON_AND_ORGANIZATION ( #199, #96 ) ;
#111 = FACE_BOUND ( 'NONE', #1, .T. ) ;
#112 = CARTESIAN_POINT ( 'NONE',  ( 4.227898534439794528E-30, 6.192086001430307938E-31, 1.210918267671642800E-15 ) ) ;
#113 =( GEOMETRIC_REPRESENTATION_CONTEXT ( 3 ) GLOBAL_UNCERTAINTY_ASSIGNED_CONTEXT ( ( #93 ) ) GLOBAL_UNIT_ASSIGNED_CONTEXT ( ( #72, #146, #185 ) ) REPRESENTATION_CONTEXT ( 'NONE', 'WORKASPACE' ) );
#114 = EDGE_LOOP ( 'NONE', ( #168 ) ) ;
#115 = CARTESIAN_POINT ( 'NONE',  ( 4.885231259955589808E-14, -1.263712492114123485E-15, 13.99185842870424956 ) ) ;
#116 = EDGE_LOOP ( 'NONE', ( #65 ) ) ;
#117 = DIRECTION ( 'NONE',  ( -3.491481338843133355E-15, -5.113545783181939887E-16, -1.000000000000000000 ) ) ;
#118 = ORIENTED_EDGE ( 'NONE', *, *, #55, .T. ) ;
#119 = DIRECTION ( 'NONE',  ( 3.491481338843133355E-15, 5.113545783181939887E-16, 1.000000000000000000 ) ) ;
#120 = CC_DESIGN_APPROVAL ( #241, ( #99 ) ) ;
#121 = PRODUCT_RELATED_PRODUCT_CATEGORY ( 'detail', '', ( #214 ) ) ;
#122 = DIRECTION ( 'NONE',  ( -1.785384967729973979E-30, 1.000000000000000000, -5.113545783181939887E-16 ) ) ;
#123 = CARTESIAN_POINT ( 'NONE',  ( 2.779219145719134403E-13, 1.999999999999988010, 79.60000000000000853 ) ) ;
#124 = AXIS2_PLACEMENT_3D ( 'NONE', #179, #119, #82 ) ;
#125 = CC_DESIGN_PERSON_AND_ORGANIZATION_ASSIGNMENT ( #108, #128, ( #214 ) ) ;
#126 = SECURITY_CLASSIFICATION_LEVEL ( 'unclassified' ) ;
#127 = DIRECTION ( 'NONE',  ( 1.000000000000000000, 0.0000000000000000000, 0.0000000000000000000 ) ) ;
#128 = PERSON_AND_ORGANIZATION_ROLE ( 'design_owner' ) ;
#129 = CC_DESIGN_APPROVAL ( #150, ( #155 ) ) ;
#130 = ADVANCED_FACE ( 'NONE', ( #212 ), #105, .T. ) ;
#131 = APPLICATION_CONTEXT ( 'configuration controlled 3d designs of mechanical parts and assemblies' ) ;
#132 = CARTESIAN_POINT ( 'NONE',  ( 4.522990617909541129E-14, 2.598999999999998423, 12.95435999497046531 ) ) ;
#133 = PERSON_AND_ORGANIZATION ( #199, #96 ) ;
#134 = CC_DESIGN_PERSON_AND_ORGANIZATION_ASSIGNMENT ( #142, #204, ( #155 ) ) ;
#135 = PLANE ( 'NONE',  #6 ) ;
#136 = AXIS2_PLACEMENT_3D ( 'NONE', #173, #192, #102 ) ;
#137 = EDGE_LOOP ( 'NONE', ( #210 ) ) ;
#138 = CARTESIAN_POINT ( 'NONE',  ( 1.396592535537253342E-15, 2.598999999999997979, 0.3999999999999999667 ) ) ;
#139 = DIRECTION ( 'NONE',  ( -2.371287349764976719E-30, 1.000000000000000000, -6.674580515493700105E-16 ) ) ;
#140 = CIRCLE ( 'NONE', #219, 2.368059892324148041 ) ;
#141 = DIRECTION ( 'NONE',  ( -3.491481338843133355E-15, 9.031770143711729009E-17, -1.000000000000000000 ) ) ;
#142 = PERSON_AND_ORGANIZATION ( #199, #96 ) ;
#143 = AXIS2_PLACEMENT_3D ( 'NONE', #207, #100, #37 ) ;
#144 = PERSON_AND_ORGANIZATION_ROLE ( 'design_supplier' ) ;
#145 = CONICAL_SURFACE ( 'NONE', #104, 2.368059892324148041, 0.5235987755982978165 ) ;
#146 =( NAMED_UNIT ( * ) PLANE_ANGLE_UNIT ( ) SI_UNIT ( $, .RADIAN. ) );
#147 = APPROVAL_STATUS ( 'not_yet_approved' ) ;
#148 = LOCAL_TIME ( 11, 3, 40.00000000000000000, #159 ) ;
#149 = ORIENTED_EDGE ( 'NONE', *, *, #176, .T. ) ;
#150 = APPROVAL ( #147, 'UNSPECIFIED' ) ;
#151 = CARTESIAN_POINT ( 'NONE',  ( 0.0000000000000000000, 0.0000000000000000000, 0.0000000000000000000 ) ) ;
#152 = CIRCLE ( 'NONE', #229, 1.999999999999995337 ) ;
#153 = DIRECTION ( 'NONE',  ( 0.0000000000000000000, 1.000000000000000000, 0.0000000000000000000 ) ) ;
#154 = FACE_OUTER_BOUND ( 'NONE', #116, .T. ) ;
#155 = SECURITY_CLASSIFICATION ( '', '', #126 ) ;
#156 = DATE_AND_TIME ( #73, #64 ) ;
#157 = DATE_AND_TIME ( #95, #45 ) ;
#158 = FACE_OUTER_BOUND ( 'NONE', #3, .T. ) ;
#159 = COORDINATED_UNIVERSAL_TIME_OFFSET ( 1, 0, .AHEAD. ) ;
#160 = CLOSED_SHELL ( 'NONE', ( #94, #221, #78, #180 ) ) ;
#161 = APPROVAL_DATE_TIME ( #7, #61 ) ;
#162 = VERTEX_POINT ( 'NONE', #181 ) ;
#163 = DESIGN_CONTEXT ( 'detailed design', #165, 'design' ) ;
#164 = CC_DESIGN_SECURITY_CLASSIFICATION ( #155, ( #99 ) ) ;
#165 = APPLICATION_CONTEXT ( 'configuration controlled 3d designs of mechanical parts and assemblies' ) ;
#166 = EDGE_CURVE ( 'NONE', #10, #10, #236, .T. ) ;
#167 = CYLINDRICAL_SURFACE ( 'NONE', #143, 1.999999999999993561 ) ;
#168 = ORIENTED_EDGE ( 'NONE', *, *, #190, .F. ) ;
#169 = APPROVAL_PERSON_ORGANIZATION ( #240, #241, #203 ) ;
#170 = CC_DESIGN_PERSON_AND_ORGANIZATION_ASSIGNMENT ( #239, #75, ( #38 ) ) ;
#171 = DIRECTION ( 'NONE',  ( 0.0000000000000000000, 1.000000000000000000, 0.0000000000000000000 ) ) ;
#172 = EDGE_LOOP ( 'NONE', ( #21 ) ) ;
#173 = CARTESIAN_POINT ( 'NONE',  ( 2.793185071074506684E-13, -7.225416114969383207E-15, 80.00000000000000000 ) ) ;
#174 = DIRECTION ( 'NONE',  ( -3.491481338843133355E-15, -5.113545783181939887E-16, -1.000000000000000000 ) ) ;
#175 = AXIS2_PLACEMENT_3D ( 'NONE', #115, #29, #106 ) ;
#176 = EDGE_CURVE ( 'NONE', #47, #47, #152, .T. ) ;
#177 = APPLICATION_PROTOCOL_DEFINITION ( 'international standard', 'config_control_design', 1994, #131 ) ;
#178 = AXIS2_PLACEMENT_3D ( 'NONE', #151, #227, #66 ) ;
#179 = CARTESIAN_POINT ( 'NONE',  ( 4.522990617909541129E-14, 6.624271292610204679E-15, 12.95435999497046531 ) ) ;
#180 = ADVANCED_FACE ( 'NONE', ( #154 ), #196, .T. ) ;
#181 = CARTESIAN_POINT ( 'NONE',  ( 2.793185071074506684E-13, 1.599999999999987876, 80.00000000000000000 ) ) ;
#182 = MANIFOLD_SOLID_BREP ( 'Corps-Déplacer/Copier1[2]', #160 ) ;
#183 = FACE_OUTER_BOUND ( 'NONE', #25, .T. ) ;
#184 = DIRECTION ( 'NONE',  ( 0.0000000000000000000, 1.000000000000000000, 0.0000000000000000000 ) ) ;
#185 =( NAMED_UNIT ( * ) SI_UNIT ( $, .STERADIAN. ) SOLID_ANGLE_UNIT ( ) );
#186 = CONICAL_SURFACE ( 'NONE', #213, 2.598999999999999755, 0.5235987755982925984 ) ;
#187 = APPROVAL_ROLE ( '' ) ;
#188 = CC_DESIGN_PERSON_AND_ORGANIZATION_ASSIGNMENT ( #87, #51, ( #99 ) ) ;
#189 = ORIENTED_EDGE ( 'NONE', *, *, #202, .T. ) ;
#190 = EDGE_CURVE ( 'NONE', #31, #31, #70, .T. ) ;
#191 = CC_DESIGN_APPROVAL ( #61, ( #38 ) ) ;
#192 = DIRECTION ( 'NONE',  ( 3.491481338843133355E-15, -9.031770143711729009E-17, 1.000000000000000000 ) ) ;
#193 = ADVANCED_BREP_SHAPE_REPRESENTATION ( '321423', ( #101, #182, #12 ), #113 ) ;
#194 = FACE_OUTER_BOUND ( 'NONE', #23, .T. ) ;
#195 = DIRECTION ( 'NONE',  ( -1.778465512323728248E-30, 1.000000000000000000, -5.214516027729440295E-16 ) ) ;
#196 = PLANE ( 'NONE',  #237 ) ;
#197 = CARTESIAN_POINT ( 'NONE',  ( 4.522990617909541129E-14, 6.624271292610203890E-15, 12.95435999497046531 ) ) ;
#198 = ADVANCED_FACE ( 'NONE', ( #41, #194 ), #76, .T. ) ;
#199 = PERSON ( 'UNSPECIFIED', 'UNSPECIFIED', 'UNSPECIFIED', ('UNSPECIFIED'), ('UNSPECIFIED'), ('UNSPECIFIED') ) ;
#200 = CALENDAR_DATE ( 2021, 26, 11 ) ;
#201 = FACE_OUTER_BOUND ( 'NONE', #114, .T. ) ;
#202 = EDGE_CURVE ( 'NONE', #162, #162, #27, .T. ) ;
#203 = APPROVAL_ROLE ( '' ) ;
#204 = PERSON_AND_ORGANIZATION_ROLE ( 'classification_officer' ) ;
#205 = DIRECTION ( 'NONE',  ( -3.491481338843133355E-15, 9.031770143711729009E-17, -1.000000000000000000 ) ) ;
#206 = DIRECTION ( 'NONE',  ( -3.491481338843133355E-15, -5.113545783181939887E-16, -1.000000000000000000 ) ) ;
#207 = CARTESIAN_POINT ( 'NONE',  ( 0.0000000000000000000, 0.0000000000000000000, 0.0000000000000000000 ) ) ;
#208 = FACE_OUTER_BOUND ( 'NONE', #36, .T. ) ;
#209 = CARTESIAN_POINT ( 'NONE',  ( 2.779219145719134403E-13, -7.189289034394536528E-15, 79.60000000000000853 ) ) ;
#210 = ORIENTED_EDGE ( 'NONE', *, *, #86, .F. ) ;
#211 = FACE_BOUND ( 'NONE', #137, .T. ) ;
#212 = FACE_OUTER_BOUND ( 'NONE', #172, .T. ) ;
#213 = AXIS2_PLACEMENT_3D ( 'NONE', #231, #50, #184 ) ;
#214 = PRODUCT ( '321423', '321423', '', ( #234 ) ) ;
#215 = CARTESIAN_POINT ( 'NONE',  ( -2.113949267219897264E-30, 2.368059892324148041, -6.054591338358214000E-16 ) ) ;
#216 = CARTESIAN_POINT ( 'NONE',  ( 4.522990617909540498E-14, 2.598999999999998423, 12.95435999497046353 ) ) ;
#217 = APPROVAL_STATUS ( 'not_yet_approved' ) ;
#218 = CLOSED_SHELL ( 'NONE', ( #130, #198, #48, #71, #30 ) ) ;
#219 = AXIS2_PLACEMENT_3D ( 'NONE', #74, #13, #52 ) ;
#220 = APPROVAL_STATUS ( 'not_yet_approved' ) ;
#221 = ADVANCED_FACE ( 'NONE', ( #62, #24 ), #40, .T. ) ;
#222 = EDGE_LOOP ( 'NONE', ( #80 ) ) ;
#223 = COORDINATED_UNIVERSAL_TIME_OFFSET ( 1, 0, .AHEAD. ) ;
#224 = ORIENTED_EDGE ( 'NONE', *, *, #55, .F. ) ;
#225 = DIRECTION ( 'NONE',  ( 0.0000000000000000000, 1.000000000000000000, 0.0000000000000000000 ) ) ;
#226 = CARTESIAN_POINT ( 'NONE',  ( 1.396592535537257878E-15, 2.045418313272782512E-16, 0.4000000000000012990 ) ) ;
#227 = DIRECTION ( 'NONE',  ( -3.491481338843133355E-15, -5.113545783181939887E-16, -1.000000000000000000 ) ) ;
#228 = EDGE_LOOP ( 'NONE', ( #20 ) ) ;
#229 = AXIS2_PLACEMENT_3D ( 'NONE', #209, #141, #153 ) ;
#230 = DIRECTION ( 'NONE',  ( -3.491481338843133355E-15, 9.031770143711729009E-17, -1.000000000000000000 ) ) ;
#231 = CARTESIAN_POINT ( 'NONE',  ( 4.522990617909540498E-14, -1.170008018334678752E-15, 12.95435999497046353 ) ) ;
#232 = VERTEX_POINT ( 'NONE', #138 ) ;
#233 = LOCAL_TIME ( 11, 3, 40.00000000000000000, #223 ) ;
#234 = MECHANICAL_CONTEXT ( 'NONE', #131, 'mechanical' ) ;
#235 = DIRECTION ( 'NONE',  ( 0.0000000000000000000, 0.0000000000000000000, 1.000000000000000000 ) ) ;
#236 = CIRCLE ( 'NONE', #39, 2.598999999999999755 ) ;
#237 = AXIS2_PLACEMENT_3D ( 'NONE', #215, #174, #122 ) ;
#238 = PRODUCT_DEFINITION_SHAPE ( 'NONE', 'NONE',  #38 ) ;
#239 = PERSON_AND_ORGANIZATION ( #199, #96 ) ;
#240 = PERSON_AND_ORGANIZATION ( #199, #96 ) ;
#241 = APPROVAL ( #220, 'UNSPECIFIED' ) ;
#242 = AXIS2_PLACEMENT_3D ( 'NONE', #197, #117, #139 ) ;
#243 = DATE_AND_TIME ( #17, #88 ) ;
ENDSEC;
END-ISO-10303-21;
