ISO-10303-21;
HEADER;
FILE_DESCRIPTION (( 'STEP AP203' ),
    '1' );
FILE_NAME ('321422.step',
    '2021-11-26T10:03:39',
    ( '' ),
    ( '' ),
    'SwSTEP 2.0',
    'SolidWorks 2019',
    '' );
FILE_SCHEMA (( 'CONFIG_CONTROL_DESIGN' ));
ENDSEC;

DATA;
#1 = PRODUCT_DEFINITION_SHAPE ( 'NONE', 'NONE',  #96 ) ;
#2 = AXIS2_PLACEMENT_3D ( 'NONE', #174, #122, #152 ) ;
#3 = CALENDAR_DATE ( 2021, 26, 11 ) ;
#4 = CARTESIAN_POINT ( 'NONE',  ( 2.793185071074506684E-13, -7.225416114969383207E-15, 80.00000000000000000 ) ) ;
#5 = FACE_OUTER_BOUND ( 'NONE', #104, .T. ) ;
#6 = AXIS2_PLACEMENT_3D ( 'NONE', #33, #77, #114 ) ;
#7 = ORIENTED_EDGE ( 'NONE', *, *, #57, .T. ) ;
#8 = LOCAL_TIME ( 11, 3, 39.00000000000000000, #54 ) ;
#9 = PERSON_AND_ORGANIZATION_ROLE ( 'classification_officer' ) ;
#10 = EDGE_LOOP ( 'NONE', ( #112 ) ) ;
#11 = CARTESIAN_POINT ( 'NONE',  ( 1.396592535537253145E-15, 2.593999999999997641, 0.3999999999999999667 ) ) ;
#12 = DIRECTION ( 'NONE',  ( -3.491481338843133355E-15, -5.108493248430560553E-16, -1.000000000000000000 ) ) ;
#13 = AXIS2_PLACEMENT_3D ( 'NONE', #4, #25, #80 ) ;
#14 = CARTESIAN_POINT ( 'NONE',  ( 0.0000000000000000000, 2.363059892324148148, 0.0000000000000000000 ) ) ;
#15 = EDGE_CURVE ( 'NONE', #211, #211, #194, .T. ) ;
#16 = DIRECTION ( 'NONE',  ( -3.491481338843133355E-15, 9.031770143711729009E-17, -1.000000000000000000 ) ) ;
#17 = PERSON_AND_ORGANIZATION ( #52, #242 ) ;
#18 = DIRECTION ( 'NONE',  ( 0.0000000000000000000, 1.000000000000000000, 0.0000000000000000000 ) ) ;
#19 = ORIENTED_EDGE ( 'NONE', *, *, #92, .T. ) ;
#20 = AXIS2_PLACEMENT_3D ( 'NONE', #58, #39, #60 ) ;
#21 = EDGE_CURVE ( 'NONE', #101, #101, #164, .T. ) ;
#22 = FACE_BOUND ( 'NONE', #66, .T. ) ;
#23 = CIRCLE ( 'NONE', #98, 2.593999999999999417 ) ;
#24 = CARTESIAN_POINT ( 'NONE',  ( 4.214802975628470796E-30, 6.166807281747425285E-31, 1.207167550557495790E-15 ) ) ;
#25 = DIRECTION ( 'NONE',  ( 3.491481338843133355E-15, -9.031770143711729009E-17, 1.000000000000000000 ) ) ;
#26 = EDGE_LOOP ( 'NONE', ( #140 ) ) ;
#27 = EDGE_CURVE ( 'NONE', #61, #61, #115, .T. ) ;
#28 = APPROVAL_STATUS ( 'not_yet_approved' ) ;
#29 = CALENDAR_DATE ( 2021, 26, 11 ) ;
#30 = CARTESIAN_POINT ( 'NONE',  ( 4.526014329445818003E-14, -1.170790192573238245E-15, 12.96302024900830929 ) ) ;
#31 = CONICAL_SURFACE ( 'NONE', #103, 2.363059892324148148, 0.5235987755982978165 ) ;
#32 = COORDINATED_UNIVERSAL_TIME_OFFSET ( 1, 0, .AHEAD. ) ;
#33 = CARTESIAN_POINT ( 'NONE',  ( 2.779219145719134403E-13, -7.189289034394536528E-15, 79.60000000000000853 ) ) ;
#34 = CONICAL_SURFACE ( 'NONE', #223, 2.593999999999999417, 0.5235987755982927094 ) ;
#35 = ADVANCED_FACE ( 'NONE', ( #184, #48 ), #34, .T. ) ;
#36 = DATE_AND_TIME ( #3, #38 ) ;
#37 = CC_DESIGN_PERSON_AND_ORGANIZATION_ASSIGNMENT ( #141, #216, ( #51 ) ) ;
#38 = LOCAL_TIME ( 11, 3, 39.00000000000000000, #32 ) ;
#39 = DIRECTION ( 'NONE',  ( -3.491481338843133355E-15, 9.031770143711729009E-17, -1.000000000000000000 ) ) ;
#40 = CYLINDRICAL_SURFACE ( 'NONE', #20, 1.999999999999993561 ) ;
#41 = CARTESIAN_POINT ( 'NONE',  ( 4.885231259955589808E-14, 1.999999999999990452, 13.99185842870424956 ) ) ;
#42 = CIRCLE ( 'NONE', #2, 2.593999999999997641 ) ;
#43 = CC_DESIGN_PERSON_AND_ORGANIZATION_ASSIGNMENT ( #178, #9, ( #167 ) ) ;
#44 = APPROVAL_DATE_TIME ( #102, #187 ) ;
#45 = CC_DESIGN_DATE_AND_TIME_ASSIGNMENT ( #113, #243, ( #167 ) ) ;
#46 = CALENDAR_DATE ( 2021, 26, 11 ) ;
#47 = CC_DESIGN_APPROVAL ( #187, ( #51 ) ) ;
#48 = FACE_OUTER_BOUND ( 'NONE', #10, .T. ) ;
#49 = DESIGN_CONTEXT ( 'detailed design', #208, 'design' ) ;
#50 = CARTESIAN_POINT ( 'NONE',  ( 2.779219145719134403E-13, 1.999999999999988010, 79.60000000000000853 ) ) ;
#51 = PRODUCT_DEFINITION_FORMATION_WITH_SPECIFIED_SOURCE ( 'ANY', '', #176, .NOT_KNOWN. ) ;
#52 = PERSON ( 'UNSPECIFIED', 'UNSPECIFIED', 'UNSPECIFIED', ('UNSPECIFIED'), ('UNSPECIFIED'), ('UNSPECIFIED') ) ;
#53 = APPROVAL_STATUS ( 'not_yet_approved' ) ;
#54 = COORDINATED_UNIVERSAL_TIME_OFFSET ( 1, 0, .AHEAD. ) ;
#55 = CARTESIAN_POINT ( 'NONE',  ( 4.526014329445818634E-14, 6.622150142132760113E-15, 12.96302024900831107 ) ) ;
#56 = AXIS2_PLACEMENT_3D ( 'NONE', #137, #171, #230 ) ;
#57 = EDGE_CURVE ( 'NONE', #109, #109, #73, .T. ) ;
#58 = CARTESIAN_POINT ( 'NONE',  ( 0.0000000000000000000, 0.0000000000000000000, 0.0000000000000000000 ) ) ;
#59 = LOCAL_TIME ( 11, 3, 39.00000000000000000, #238 ) ;
#60 = DIRECTION ( 'NONE',  ( 3.153425691349006731E-31, 1.000000000000000000, 9.031770143711729009E-17 ) ) ;
#61 = VERTEX_POINT ( 'NONE', #50 ) ;
#62 = EDGE_LOOP ( 'NONE', ( #235 ) ) ;
#63 = AXIS2_PLACEMENT_3D ( 'NONE', #147, #224, #105 ) ;
#64 = FACE_BOUND ( 'NONE', #119, .T. ) ;
#65 = DIRECTION ( 'NONE',  ( 1.000000000000000000, 0.0000000000000000000, 0.0000000000000000000 ) ) ;
#66 = EDGE_LOOP ( 'NONE', ( #233 ) ) ;
#67 = EDGE_CURVE ( 'NONE', #183, #183, #23, .T. ) ;
#68 = PERSON_AND_ORGANIZATION_ROLE ( 'design_owner' ) ;
#69 = ORIENTED_EDGE ( 'NONE', *, *, #21, .F. ) ;
#70 =( NAMED_UNIT ( * ) SI_UNIT ( $, .STERADIAN. ) SOLID_ANGLE_UNIT ( ) );
#71 = CONICAL_SURFACE ( 'NONE', #56, 1.999999999999995337, 0.7853981633974516097 ) ;
#72 = MANIFOLD_SOLID_BREP ( 'Corps-Déplacer/Copier1[2]', #159 ) ;
#73 = CIRCLE ( 'NONE', #110, 1.599999999999994982 ) ;
#74 = MANIFOLD_SOLID_BREP ( 'Corps-Déplacer/Copier1[1]', #79 ) ;
#75 = APPLICATION_PROTOCOL_DEFINITION ( 'international standard', 'config_control_design', 1994, #173 ) ;
#76 = COORDINATED_UNIVERSAL_TIME_OFFSET ( 1, 0, .AHEAD. ) ;
#77 = DIRECTION ( 'NONE',  ( -3.491481338843133355E-15, 9.031770143711729009E-17, -1.000000000000000000 ) ) ;
#78 = CYLINDRICAL_SURFACE ( 'NONE', #63, 2.593999999999994532 ) ;
#79 = CLOSED_SHELL ( 'NONE', ( #188, #157, #162, #35, #210 ) ) ;
#80 = DIRECTION ( 'NONE',  ( -3.153425691349006731E-31, -1.000000000000000000, -9.031770143711729009E-17 ) ) ;
#81 = DIRECTION ( 'NONE',  ( 3.153425691349006731E-31, 1.000000000000000000, 9.031770143711729009E-17 ) ) ;
#82 = PLANE ( 'NONE',  #138 ) ;
#83 = FACE_OUTER_BOUND ( 'NONE', #85, .T. ) ;
#84 = ORIENTED_EDGE ( 'NONE', *, *, #21, .T. ) ;
#85 = EDGE_LOOP ( 'NONE', ( #202 ) ) ;
#86 = AXIS2_PLACEMENT_3D ( 'NONE', #193, #154, #81 ) ;
#87 = MECHANICAL_CONTEXT ( 'NONE', #173, 'mechanical' ) ;
#88 = DATE_AND_TIME ( #46, #99 ) ;
#89 =( NAMED_UNIT ( * ) PLANE_ANGLE_UNIT ( ) SI_UNIT ( $, .RADIAN. ) );
#90 = COORDINATED_UNIVERSAL_TIME_OFFSET ( 1, 0, .AHEAD. ) ;
#91 = EDGE_LOOP ( 'NONE', ( #19 ) ) ;
#92 = EDGE_CURVE ( 'NONE', #179, #179, #198, .T. ) ;
#93 = DIRECTION ( 'NONE',  ( 0.0000000000000000000, 0.0000000000000000000, 1.000000000000000000 ) ) ;
#94 = SHAPE_DEFINITION_REPRESENTATION ( #1, #191 ) ;
#95 = FACE_OUTER_BOUND ( 'NONE', #126, .T. ) ;
#96 = PRODUCT_DEFINITION ( 'UNKNOWN', '', #51, #49 ) ;
#97 = EDGE_LOOP ( 'NONE', ( #168 ) ) ;
#98 = AXIS2_PLACEMENT_3D ( 'NONE', #180, #16, #18 ) ;
#99 = LOCAL_TIME ( 11, 3, 39.00000000000000000, #76 ) ;
#100 = PLANE ( 'NONE',  #120 ) ;
#101 = VERTEX_POINT ( 'NONE', #155 ) ;
#102 = DATE_AND_TIME ( #165, #231 ) ;
#103 = AXIS2_PLACEMENT_3D ( 'NONE', #24, #192, #190 ) ;
#104 = EDGE_LOOP ( 'NONE', ( #145 ) ) ;
#105 = DIRECTION ( 'NONE',  ( -1.783620884650144323E-30, 1.000000000000000000, -5.108493248430560553E-16 ) ) ;
#106 = APPLICATION_PROTOCOL_DEFINITION ( 'international standard', 'config_control_design', 1994, #208 ) ;
#107 = CARTESIAN_POINT ( 'NONE',  ( 4.526014329445818003E-14, 2.593999999999998085, 12.96302024900830929 ) ) ;
#108 = DIRECTION ( 'NONE',  ( -3.491481338843133355E-15, 9.031770143711729009E-17, -1.000000000000000000 ) ) ;
#109 = VERTEX_POINT ( 'NONE', #144 ) ;
#110 = AXIS2_PLACEMENT_3D ( 'NONE', #185, #108, #111 ) ;
#111 = DIRECTION ( 'NONE',  ( 0.0000000000000000000, 1.000000000000000000, 0.0000000000000000000 ) ) ;
#112 = ORIENTED_EDGE ( 'NONE', *, *, #67, .F. ) ;
#113 = DATE_AND_TIME ( #132, #8 ) ;
#114 = DIRECTION ( 'NONE',  ( 0.0000000000000000000, 1.000000000000000000, 0.0000000000000000000 ) ) ;
#115 = CIRCLE ( 'NONE', #6, 1.999999999999995337 ) ;
#116 = APPROVAL_PERSON_ORGANIZATION ( #129, #187, #203 ) ;
#117 = ADVANCED_FACE ( 'NONE', ( #95, #241 ), #78, .T. ) ;
#118 = PLANE ( 'NONE',  #13 ) ;
#119 = EDGE_LOOP ( 'NONE', ( #7 ) ) ;
#120 = AXIS2_PLACEMENT_3D ( 'NONE', #228, #229, #136 ) ;
#121 = ORIENTED_EDGE ( 'NONE', *, *, #170, .T. ) ;
#122 = DIRECTION ( 'NONE',  ( -3.491481338843133355E-15, -5.108493248430560553E-16, -1.000000000000000000 ) ) ;
#123 = SECURITY_CLASSIFICATION_LEVEL ( 'unclassified' ) ;
#124 = UNCERTAINTY_MEASURE_WITH_UNIT (LENGTH_MEASURE( 1.000000000000000082E-05 ), #197, 'distance_accuracy_value', 'NONE');
#125 = EDGE_LOOP ( 'NONE', ( #156 ) ) ;
#126 = EDGE_LOOP ( 'NONE', ( #84 ) ) ;
#127 = CARTESIAN_POINT ( 'NONE',  ( 0.0000000000000000000, 0.0000000000000000000, 0.0000000000000000000 ) ) ;
#128 = EDGE_LOOP ( 'NONE', ( #69 ) ) ;
#129 = PERSON_AND_ORGANIZATION ( #52, #242 ) ;
#130 = DIRECTION ( 'NONE',  ( -1.783620884650143973E-30, 1.000000000000000000, -5.108493248430560553E-16 ) ) ;
#131 = APPROVAL ( #201, 'UNSPECIFIED' ) ;
#132 = CALENDAR_DATE ( 2021, 26, 11 ) ;
#133 = DIRECTION ( 'NONE',  ( -3.491481338843133355E-15, -5.108493248430560553E-16, -1.000000000000000000 ) ) ;
#134 = AXIS2_PLACEMENT_3D ( 'NONE', #222, #12, #130 ) ;
#135 = PRODUCT_RELATED_PRODUCT_CATEGORY ( 'detail', '', ( #176 ) ) ;
#136 = DIRECTION ( 'NONE',  ( -1.783620884650143973E-30, 1.000000000000000000, -5.108493248430560553E-16 ) ) ;
#137 = CARTESIAN_POINT ( 'NONE',  ( 2.779219145719134403E-13, -7.189289034394536528E-15, 79.60000000000000853 ) ) ;
#138 = AXIS2_PLACEMENT_3D ( 'NONE', #172, #139, #215 ) ;
#139 = DIRECTION ( 'NONE',  ( 3.491481338843133355E-15, 5.108493248430560553E-16, 1.000000000000000000 ) ) ;
#140 = ORIENTED_EDGE ( 'NONE', *, *, #57, .F. ) ;
#141 = PERSON_AND_ORGANIZATION ( #52, #242 ) ;
#142 = PERSON_AND_ORGANIZATION ( #52, #242 ) ;
#143 = CC_DESIGN_PERSON_AND_ORGANIZATION_ASSIGNMENT ( #220, #237, ( #51 ) ) ;
#144 = CARTESIAN_POINT ( 'NONE',  ( 2.793185071074506684E-13, 1.599999999999987876, 80.00000000000000000 ) ) ;
#145 = ORIENTED_EDGE ( 'NONE', *, *, #27, .T. ) ;
#146 = APPROVAL_PERSON_ORGANIZATION ( #17, #196, #148 ) ;
#147 = CARTESIAN_POINT ( 'NONE',  ( 0.0000000000000000000, 0.0000000000000000000, 0.0000000000000000000 ) ) ;
#148 = APPROVAL_ROLE ( '' ) ;
#149 = CC_DESIGN_PERSON_AND_ORGANIZATION_ASSIGNMENT ( #142, #234, ( #96 ) ) ;
#150 = PLANE ( 'NONE',  #86 ) ;
#151 = ADVANCED_FACE ( 'NONE', ( #181, #22 ), #31, .T. ) ;
#152 = DIRECTION ( 'NONE',  ( -1.781893549163211498E-30, 1.000000000000000000, -5.015584452515831186E-16 ) ) ;
#153 = CC_DESIGN_APPROVAL ( #196, ( #167 ) ) ;
#154 = DIRECTION ( 'NONE',  ( -3.491481338843133355E-15, 9.031770143711729009E-17, -1.000000000000000000 ) ) ;
#155 = CARTESIAN_POINT ( 'NONE',  ( 4.526014329445818003E-14, 2.593999999999998085, 12.96302024900830929 ) ) ;
#156 = ORIENTED_EDGE ( 'NONE', *, *, #67, .T. ) ;
#157 = ADVANCED_FACE ( 'NONE', ( #64, #83 ), #71, .T. ) ;
#158 = FACE_OUTER_BOUND ( 'NONE', #128, .T. ) ;
#159 = CLOSED_SHELL ( 'NONE', ( #166, #117, #151, #225 ) ) ;
#160 = PERSON_AND_ORGANIZATION ( #52, #242 ) ;
#161 = EDGE_LOOP ( 'NONE', ( #121 ) ) ;
#162 = ADVANCED_FACE ( 'NONE', ( #5, #209 ), #40, .T. ) ;
#163 = APPROVAL_ROLE ( '' ) ;
#164 = CIRCLE ( 'NONE', #207, 2.593999999999991868 ) ;
#165 = CALENDAR_DATE ( 2021, 26, 11 ) ;
#166 = ADVANCED_FACE ( 'NONE', ( #158 ), #82, .T. ) ;
#167 = SECURITY_CLASSIFICATION ( '', '', #123 ) ;
#168 = ORIENTED_EDGE ( 'NONE', *, *, #170, .F. ) ;
#169 = AXIS2_PLACEMENT_3D ( 'NONE', #239, #226, #204 ) ;
#170 = EDGE_CURVE ( 'NONE', #217, #217, #42, .T. ) ;
#171 = DIRECTION ( 'NONE',  ( -3.491481338843133355E-15, 9.031770143711729009E-17, -1.000000000000000000 ) ) ;
#172 = CARTESIAN_POINT ( 'NONE',  ( 4.526014329445817371E-14, 6.622150142132759324E-15, 12.96302024900830752 ) ) ;
#173 = APPLICATION_CONTEXT ( 'configuration controlled 3d designs of mechanical parts and assemblies' ) ;
#174 = CARTESIAN_POINT ( 'NONE',  ( 1.396592535537257681E-15, 2.043397299372230729E-16, 0.4000000000000012434 ) ) ;
#175 = CC_DESIGN_SECURITY_CLASSIFICATION ( #167, ( #51 ) ) ;
#176 = PRODUCT ( '321422', '321422', '', ( #87 ) ) ;
#177 = CC_DESIGN_PERSON_AND_ORGANIZATION_ASSIGNMENT ( #160, #68, ( #176 ) ) ;
#178 = PERSON_AND_ORGANIZATION ( #52, #242 ) ;
#179 = VERTEX_POINT ( 'NONE', #14 ) ;
#180 = CARTESIAN_POINT ( 'NONE',  ( 4.526014329445818003E-14, -1.170790192573238245E-15, 12.96302024900830929 ) ) ;
#181 = FACE_OUTER_BOUND ( 'NONE', #161, .T. ) ;
#182 = CC_DESIGN_APPROVAL ( #131, ( #96 ) ) ;
#183 = VERTEX_POINT ( 'NONE', #107 ) ;
#184 = FACE_BOUND ( 'NONE', #218, .T. ) ;
#185 = CARTESIAN_POINT ( 'NONE',  ( 2.793185071074506684E-13, -7.225416114969383207E-15, 80.00000000000000000 ) ) ;
#186 = DIRECTION ( 'NONE',  ( 0.0000000000000000000, 1.000000000000000000, 0.0000000000000000000 ) ) ;
#187 = APPROVAL ( #28, 'UNSPECIFIED' ) ;
#188 = ADVANCED_FACE ( 'NONE', ( #195 ), #118, .T. ) ;
#189 = APPROVAL_PERSON_ORGANIZATION ( #232, #131, #163 ) ;
#190 = DIRECTION ( 'NONE',  ( 1.783620884650143973E-30, -1.000000000000000000, 5.108493248430560553E-16 ) ) ;
#191 = ADVANCED_BREP_SHAPE_REPRESENTATION ( '321422', ( #74, #72, #214 ), #206 ) ;
#192 = DIRECTION ( 'NONE',  ( 3.491481338843133355E-15, 5.108493248430560553E-16, 1.000000000000000000 ) ) ;
#193 = CARTESIAN_POINT ( 'NONE',  ( 4.526014329445817371E-14, 2.593999999999998085, 12.96302024900830752 ) ) ;
#194 = CIRCLE ( 'NONE', #169, 1.999999999999991784 ) ;
#195 = FACE_OUTER_BOUND ( 'NONE', #26, .T. ) ;
#196 = APPROVAL ( #53, 'UNSPECIFIED' ) ;
#197 =( LENGTH_UNIT ( ) NAMED_UNIT ( * ) SI_UNIT ( .MILLI., .METRE. ) );
#198 = CIRCLE ( 'NONE', #134, 2.363059892324148148 ) ;
#199 = APPROVAL_DATE_TIME ( #236, #131 ) ;
#200 = DIRECTION ( 'NONE',  ( -3.491481338843133355E-15, 9.031770143711729009E-17, -1.000000000000000000 ) ) ;
#201 = APPROVAL_STATUS ( 'not_yet_approved' ) ;
#202 = ORIENTED_EDGE ( 'NONE', *, *, #27, .F. ) ;
#203 = APPROVAL_ROLE ( '' ) ;
#204 = DIRECTION ( 'NONE',  ( 0.0000000000000000000, 1.000000000000000000, 0.0000000000000000000 ) ) ;
#205 = APPROVAL_DATE_TIME ( #36, #196 ) ;
#206 =( GEOMETRIC_REPRESENTATION_CONTEXT ( 3 ) GLOBAL_UNCERTAINTY_ASSIGNED_CONTEXT ( ( #124 ) ) GLOBAL_UNIT_ASSIGNED_CONTEXT ( ( #197, #89, #70 ) ) REPRESENTATION_CONTEXT ( 'NONE', 'WORKASPACE' ) );
#207 = AXIS2_PLACEMENT_3D ( 'NONE', #55, #133, #219 ) ;
#208 = APPLICATION_CONTEXT ( 'configuration controlled 3d designs of mechanical parts and assemblies' ) ;
#209 = FACE_OUTER_BOUND ( 'NONE', #62, .T. ) ;
#210 = ADVANCED_FACE ( 'NONE', ( #213 ), #150, .T. ) ;
#211 = VERTEX_POINT ( 'NONE', #41 ) ;
#212 = ORIENTED_EDGE ( 'NONE', *, *, #15, .T. ) ;
#213 = FACE_OUTER_BOUND ( 'NONE', #125, .T. ) ;
#214 = AXIS2_PLACEMENT_3D ( 'NONE', #127, #93, #65 ) ;
#215 = DIRECTION ( 'NONE',  ( 1.783620884650143973E-30, -1.000000000000000000, 5.108493248430560553E-16 ) ) ;
#216 = PERSON_AND_ORGANIZATION_ROLE ( 'design_supplier' ) ;
#217 = VERTEX_POINT ( 'NONE', #11 ) ;
#218 = EDGE_LOOP ( 'NONE', ( #212 ) ) ;
#219 = DIRECTION ( 'NONE',  ( -2.375858065550953802E-30, 1.000000000000000000, -6.687445936687789377E-16 ) ) ;
#220 = PERSON_AND_ORGANIZATION ( #52, #242 ) ;
#221 = DATE_TIME_ROLE ( 'creation_date' ) ;
#222 = CARTESIAN_POINT ( 'NONE',  ( 4.214802975628470796E-30, 6.166807281747425285E-31, 1.207167550557495790E-15 ) ) ;
#223 = AXIS2_PLACEMENT_3D ( 'NONE', #30, #200, #186 ) ;
#224 = DIRECTION ( 'NONE',  ( -3.491481338843133355E-15, -5.108493248430560553E-16, -1.000000000000000000 ) ) ;
#225 = ADVANCED_FACE ( 'NONE', ( #227 ), #100, .T. ) ;
#226 = DIRECTION ( 'NONE',  ( -3.491481338843133355E-15, 9.031770143711729009E-17, -1.000000000000000000 ) ) ;
#227 = FACE_OUTER_BOUND ( 'NONE', #91, .T. ) ;
#228 = CARTESIAN_POINT ( 'NONE',  ( -2.107401487814235398E-30, 2.363059892324148148, -6.035837752787478949E-16 ) ) ;
#229 = DIRECTION ( 'NONE',  ( -3.491481338843133355E-15, -5.108493248430560553E-16, -1.000000000000000000 ) ) ;
#230 = DIRECTION ( 'NONE',  ( 0.0000000000000000000, 1.000000000000000000, 0.0000000000000000000 ) ) ;
#231 = LOCAL_TIME ( 11, 3, 39.00000000000000000, #90 ) ;
#232 = PERSON_AND_ORGANIZATION ( #52, #242 ) ;
#233 = ORIENTED_EDGE ( 'NONE', *, *, #92, .F. ) ;
#234 = PERSON_AND_ORGANIZATION_ROLE ( 'creator' ) ;
#235 = ORIENTED_EDGE ( 'NONE', *, *, #15, .F. ) ;
#236 = DATE_AND_TIME ( #29, #59 ) ;
#237 = PERSON_AND_ORGANIZATION_ROLE ( 'creator' ) ;
#238 = COORDINATED_UNIVERSAL_TIME_OFFSET ( 1, 0, .AHEAD. ) ;
#239 = CARTESIAN_POINT ( 'NONE',  ( 4.885231259955589808E-14, -1.263712492114123485E-15, 13.99185842870424956 ) ) ;
#240 = CC_DESIGN_DATE_AND_TIME_ASSIGNMENT ( #88, #221, ( #96 ) ) ;
#241 = FACE_OUTER_BOUND ( 'NONE', #97, .T. ) ;
#242 = ORGANIZATION ( 'UNSPECIFIED', 'UNSPECIFIED', '' ) ;
#243 = DATE_TIME_ROLE ( 'classification_date' ) ;
ENDSEC;
END-ISO-10303-21;
