ISO-10303-21;
HEADER;
FILE_DESCRIPTION (( 'STEP AP203' ),
    '1' );
FILE_NAME ('321421.step',
    '2021-11-26T10:03:39',
    ( '' ),
    ( '' ),
    'SwSTEP 2.0',
    'SolidWorks 2019',
    '' );
FILE_SCHEMA (( 'CONFIG_CONTROL_DESIGN' ));
ENDSEC;

DATA;
#1 = DIRECTION ( 'NONE',  ( 3.491481338843133355E-15, 5.103447460104119574E-16, 1.000000000000000000 ) ) ;
#2 = LOCAL_TIME ( 11, 3, 39.00000000000000000, #205 ) ;
#3 = DATE_TIME_ROLE ( 'classification_date' ) ;
#4 = FACE_OUTER_BOUND ( 'NONE', #39, .T. ) ;
#5 = ORIENTED_EDGE ( 'NONE', *, *, #181, .F. ) ;
#6 = CYLINDRICAL_SURFACE ( 'NONE', #52, 1.999999999999993561 ) ;
#7 = DIRECTION ( 'NONE',  ( 0.0000000000000000000, 1.000000000000000000, 0.0000000000000000000 ) ) ;
#8 = CC_DESIGN_PERSON_AND_ORGANIZATION_ASSIGNMENT ( #126, #51, ( #20 ) ) ;
#9 = PERSON_AND_ORGANIZATION_ROLE ( 'creator' ) ;
#10 = CARTESIAN_POINT ( 'NONE',  ( 4.529038040982096138E-14, 2.588999999999998636, 12.97168050304615683 ) ) ;
#11 = APPROVAL_STATUS ( 'not_yet_approved' ) ;
#12 = EDGE_CURVE ( 'NONE', #198, #198, #104, .T. ) ;
#13 = PERSON_AND_ORGANIZATION_ROLE ( 'classification_officer' ) ;
#14 = CIRCLE ( 'NONE', #159, 2.588999999999999524 ) ;
#15 = PERSON_AND_ORGANIZATION ( #54, #130 ) ;
#16 = APPLICATION_CONTEXT ( 'configuration controlled 3d designs of mechanical parts and assemblies' ) ;
#17 = CARTESIAN_POINT ( 'NONE',  ( 4.529038040982096769E-14, 6.620028991655304502E-15, 12.97168050304615861 ) ) ;
#18 = EDGE_CURVE ( 'NONE', #119, #119, #146, .T. ) ;
#19 = ORIENTED_EDGE ( 'NONE', *, *, #40, .F. ) ;
#20 = PRODUCT ( '321421', '321421', '', ( #182 ) ) ;
#21 = AXIS2_PLACEMENT_3D ( 'NONE', #80, #215, #78 ) ;
#22 = ORIENTED_EDGE ( 'NONE', *, *, #181, .T. ) ;
#23 = CARTESIAN_POINT ( 'NONE',  ( 1.396592535537253145E-15, 2.588999999999998636, 0.3999999999999999667 ) ) ;
#24 = CC_DESIGN_DATE_AND_TIME_ASSIGNMENT ( #93, #3, ( #47 ) ) ;
#25 = DIRECTION ( 'NONE',  ( -1.785334826778435062E-30, 1.000000000000000000, -5.025270787881830731E-16 ) ) ;
#26 = CIRCLE ( 'NONE', #191, 1.999999999999995337 ) ;
#27 = CARTESIAN_POINT ( 'NONE',  ( 2.793185071074506684E-13, 1.599999999999987876, 80.00000000000000000 ) ) ;
#28 = DIRECTION ( 'NONE',  ( 3.491481338843133355E-15, 5.103447460104119574E-16, 1.000000000000000000 ) ) ;
#29 = VERTEX_POINT ( 'NONE', #189 ) ;
#30 = AXIS2_PLACEMENT_3D ( 'NONE', #65, #180, #173 ) ;
#31 = COORDINATED_UNIVERSAL_TIME_OFFSET ( 1, 0, .AHEAD. ) ;
#32 = SECURITY_CLASSIFICATION_LEVEL ( 'unclassified' ) ;
#33 = CONICAL_SURFACE ( 'NONE', #179, 2.588999999999999524, 0.5235987755982939307 ) ;
#34 = ORIENTED_EDGE ( 'NONE', *, *, #213, .T. ) ;
#35 = ORIENTED_EDGE ( 'NONE', *, *, #170, .F. ) ;
#36 = DESIGN_CONTEXT ( 'detailed design', #16, 'design' ) ;
#37 = FACE_BOUND ( 'NONE', #79, .T. ) ;
#38 = CARTESIAN_POINT ( 'NONE',  ( 0.0000000000000000000, 0.0000000000000000000, 0.0000000000000000000 ) ) ;
#39 = EDGE_LOOP ( 'NONE', ( #34 ) ) ;
#40 = EDGE_CURVE ( 'NONE', #141, #141, #204, .T. ) ;
#41 = CARTESIAN_POINT ( 'NONE',  ( 4.529038040982096138E-14, 2.588999999999998636, 12.97168050304615683 ) ) ;
#42 = DIRECTION ( 'NONE',  ( -3.491481338843133355E-15, -5.103447460104119574E-16, -1.000000000000000000 ) ) ;
#43 = DIRECTION ( 'NONE',  ( -1.781859157071991903E-30, 1.000000000000000000, -5.103447460104118588E-16 ) ) ;
#44 = AXIS2_PLACEMENT_3D ( 'NONE', #116, #1, #197 ) ;
#45 = EDGE_CURVE ( 'NONE', #201, #201, #183, .T. ) ;
#46 = CIRCLE ( 'NONE', #174, 1.999999999999991784 ) ;
#47 = SECURITY_CLASSIFICATION ( '', '', #32 ) ;
#48 = APPROVAL_ROLE ( '' ) ;
#49 = PRODUCT_RELATED_PRODUCT_CATEGORY ( 'detail', '', ( #20 ) ) ;
#50 = ORIENTED_EDGE ( 'NONE', *, *, #40, .T. ) ;
#51 = PERSON_AND_ORGANIZATION_ROLE ( 'design_owner' ) ;
#52 = AXIS2_PLACEMENT_3D ( 'NONE', #202, #143, #176 ) ;
#53 = CC_DESIGN_SECURITY_CLASSIFICATION ( #47, ( #112 ) ) ;
#54 = PERSON ( 'UNSPECIFIED', 'UNSPECIFIED', 'UNSPECIFIED', ('UNSPECIFIED'), ('UNSPECIFIED'), ('UNSPECIFIED') ) ;
#55 = APPROVAL ( #240, 'UNSPECIFIED' ) ;
#56 = AXIS2_PLACEMENT_3D ( 'NONE', #137, #200, #25 ) ;
#57 = CC_DESIGN_APPROVAL ( #227, ( #47 ) ) ;
#58 = CARTESIAN_POINT ( 'NONE',  ( 2.779219145719134403E-13, -7.189289034394536528E-15, 79.60000000000000853 ) ) ;
#59 = APPROVAL_ROLE ( '' ) ;
#60 = DIRECTION ( 'NONE',  ( -2.380446435704586389E-30, 1.000000000000000000, -6.700361050509125391E-16 ) ) ;
#61 = DIRECTION ( 'NONE',  ( -3.491481338843133355E-15, 9.031770143711729009E-17, -1.000000000000000000 ) ) ;
#62 = ADVANCED_FACE ( 'NONE', ( #212, #139 ), #33, .T. ) ;
#63 = DIRECTION ( 'NONE',  ( -3.491481338843133355E-15, -5.103447460104119574E-16, -1.000000000000000000 ) ) ;
#64 = CARTESIAN_POINT ( 'NONE',  ( 4.529038040982096769E-14, 2.588999999999998636, 12.97168050304615861 ) ) ;
#65 = CARTESIAN_POINT ( 'NONE',  ( 2.793185071074506684E-13, -7.225416114969383207E-15, 80.00000000000000000 ) ) ;
#66 = DIRECTION ( 'NONE',  ( -3.491481338843133355E-15, 9.031770143711729009E-17, -1.000000000000000000 ) ) ;
#67 = APPLICATION_CONTEXT ( 'configuration controlled 3d designs of mechanical parts and assemblies' ) ;
#68 = FACE_OUTER_BOUND ( 'NONE', #95, .T. ) ;
#69 = DIRECTION ( 'NONE',  ( 1.000000000000000000, 0.0000000000000000000, 0.0000000000000000000 ) ) ;
#70 = LOCAL_TIME ( 11, 3, 39.00000000000000000, #31 ) ;
#71 =( LENGTH_UNIT ( ) NAMED_UNIT ( * ) SI_UNIT ( .MILLI., .METRE. ) );
#72 = AXIS2_PLACEMENT_3D ( 'NONE', #120, #42, #140 ) ;
#73 = APPROVAL_STATUS ( 'not_yet_approved' ) ;
#74 = PRODUCT_DEFINITION ( 'UNKNOWN', '', #112, #36 ) ;
#75 = EDGE_LOOP ( 'NONE', ( #22 ) ) ;
#76 = PLANE ( 'NONE',  #219 ) ;
#77 = EDGE_LOOP ( 'NONE', ( #35 ) ) ;
#78 = DIRECTION ( 'NONE',  ( -3.153425691349006731E-31, -1.000000000000000000, -9.031770143711729009E-17 ) ) ;
#79 = EDGE_LOOP ( 'NONE', ( #98 ) ) ;
#80 = CARTESIAN_POINT ( 'NONE',  ( 2.793185071074506684E-13, -7.225416114969383207E-15, 80.00000000000000000 ) ) ;
#81 = FACE_OUTER_BOUND ( 'NONE', #195, .T. ) ;
#82 = ADVANCED_FACE ( 'NONE', ( #81 ), #154, .T. ) ;
#83 = DIRECTION ( 'NONE',  ( -3.491481338843133355E-15, 9.031770143711729009E-17, -1.000000000000000000 ) ) ;
#84 = VERTEX_POINT ( 'NONE', #10 ) ;
#85 = CC_DESIGN_PERSON_AND_ORGANIZATION_ASSIGNMENT ( #224, #166, ( #112 ) ) ;
#86 = CALENDAR_DATE ( 2021, 26, 11 ) ;
#87 = DIRECTION ( 'NONE',  ( 0.0000000000000000000, 0.0000000000000000000, 1.000000000000000000 ) ) ;
#88 = MANIFOLD_SOLID_BREP ( 'Corps-Déplacer/Copier1[2]', #243 ) ;
#89 = CARTESIAN_POINT ( 'NONE',  ( 0.0000000000000000000, 0.0000000000000000000, 0.0000000000000000000 ) ) ;
#90 = SHAPE_DEFINITION_REPRESENTATION ( #225, #103 ) ;
#91 = COORDINATED_UNIVERSAL_TIME_OFFSET ( 1, 0, .AHEAD. ) ;
#92 = AXIS2_PLACEMENT_3D ( 'NONE', #38, #218, #43 ) ;
#93 = DATE_AND_TIME ( #124, #153 ) ;
#94 = EDGE_LOOP ( 'NONE', ( #50 ) ) ;
#95 = EDGE_LOOP ( 'NONE', ( #19 ) ) ;
#96 = ORIENTED_EDGE ( 'NONE', *, *, #12, .T. ) ;
#97 = DIRECTION ( 'NONE',  ( 0.0000000000000000000, 1.000000000000000000, 0.0000000000000000000 ) ) ;
#98 = ORIENTED_EDGE ( 'NONE', *, *, #45, .T. ) ;
#99 = CARTESIAN_POINT ( 'NONE',  ( 4.529038040982096138E-14, -1.171572366811798133E-15, 12.97168050304615683 ) ) ;
#100 = CC_DESIGN_DATE_AND_TIME_ASSIGNMENT ( #108, #169, ( #74 ) ) ;
#101 = CARTESIAN_POINT ( 'NONE',  ( 4.529038040982096769E-14, 6.620028991655305291E-15, 12.97168050304615861 ) ) ;
#102 = PERSON_AND_ORGANIZATION ( #54, #130 ) ;
#103 = ADVANCED_BREP_SHAPE_REPRESENTATION ( '321421', ( #172, #88, #238 ), #188 ) ;
#104 = CIRCLE ( 'NONE', #138, 2.588999999999991974 ) ;
#105 = LOCAL_TIME ( 11, 3, 39.00000000000000000, #145 ) ;
#106 = ADVANCED_FACE ( 'NONE', ( #214, #236 ), #232, .T. ) ;
#107 = APPROVAL_ROLE ( '' ) ;
#108 = DATE_AND_TIME ( #86, #2 ) ;
#109 = ADVANCED_FACE ( 'NONE', ( #37, #229 ), #241, .T. ) ;
#110 = AXIS2_PLACEMENT_3D ( 'NONE', #101, #28, #233 ) ;
#111 = DATE_AND_TIME ( #242, #105 ) ;
#112 = PRODUCT_DEFINITION_FORMATION_WITH_SPECIFIED_SOURCE ( 'ANY', '', #20, .NOT_KNOWN. ) ;
#113 = ORIENTED_EDGE ( 'NONE', *, *, #12, .F. ) ;
#114 = ORIENTED_EDGE ( 'NONE', *, *, #18, .F. ) ;
#115 = CLOSED_SHELL ( 'NONE', ( #186, #109, #152, #62, #123 ) ) ;
#116 = CARTESIAN_POINT ( 'NONE',  ( 4.201730612061980309E-30, 6.141608486234803492E-31, 1.203423476825507265E-15 ) ) ;
#117 = CC_DESIGN_APPROVAL ( #55, ( #112 ) ) ;
#118 = ORIENTED_EDGE ( 'NONE', *, *, #45, .F. ) ;
#119 = VERTEX_POINT ( 'NONE', #199 ) ;
#120 = CARTESIAN_POINT ( 'NONE',  ( 4.201730612061980309E-30, 6.141608486234803492E-31, 1.203423476825507265E-15 ) ) ;
#121 = AXIS2_PLACEMENT_3D ( 'NONE', #157, #231, #163 ) ;
#122 = DIRECTION ( 'NONE',  ( 0.0000000000000000000, 1.000000000000000000, 0.0000000000000000000 ) ) ;
#123 = ADVANCED_FACE ( 'NONE', ( #226 ), #76, .T. ) ;
#124 = CALENDAR_DATE ( 2021, 26, 11 ) ;
#125 = UNCERTAINTY_MEASURE_WITH_UNIT (LENGTH_MEASURE( 1.000000000000000082E-05 ), #71, 'distance_accuracy_value', 'NONE');
#126 = PERSON_AND_ORGANIZATION ( #54, #130 ) ;
#127 = APPROVAL_DATE_TIME ( #111, #55 ) ;
#128 = PERSON_AND_ORGANIZATION ( #54, #130 ) ;
#129 = EDGE_LOOP ( 'NONE', ( #5 ) ) ;
#130 = ORGANIZATION ( 'UNSPECIFIED', 'UNSPECIFIED', '' ) ;
#131 = APPLICATION_PROTOCOL_DEFINITION ( 'international standard', 'config_control_design', 1994, #16 ) ;
#132 = CC_DESIGN_PERSON_AND_ORGANIZATION_ASSIGNMENT ( #187, #9, ( #112 ) ) ;
#133 = AXIS2_PLACEMENT_3D ( 'NONE', #58, #135, #211 ) ;
#134 = CC_DESIGN_APPROVAL ( #177, ( #74 ) ) ;
#135 = DIRECTION ( 'NONE',  ( -3.491481338843133355E-15, 9.031770143711729009E-17, -1.000000000000000000 ) ) ;
#136 = DATE_AND_TIME ( #193, #220 ) ;
#137 = CARTESIAN_POINT ( 'NONE',  ( 1.396592535537257681E-15, 2.041378984041654338E-16, 0.4000000000000012434 ) ) ;
#138 = AXIS2_PLACEMENT_3D ( 'NONE', #17, #63, #60 ) ;
#139 = FACE_OUTER_BOUND ( 'NONE', #77, .T. ) ;
#140 = DIRECTION ( 'NONE',  ( -1.781859157071991903E-30, 1.000000000000000000, -5.103447460104119574E-16 ) ) ;
#141 = VERTEX_POINT ( 'NONE', #23 ) ;
#142 = ORIENTED_EDGE ( 'NONE', *, *, #170, .T. ) ;
#143 = DIRECTION ( 'NONE',  ( -3.491481338843133355E-15, 9.031770143711729009E-17, -1.000000000000000000 ) ) ;
#144 = FACE_OUTER_BOUND ( 'NONE', #129, .T. ) ;
#145 = COORDINATED_UNIVERSAL_TIME_OFFSET ( 1, 0, .AHEAD. ) ;
#146 = CIRCLE ( 'NONE', #72, 2.358059892324149143 ) ;
#147 = ADVANCED_FACE ( 'NONE', ( #217 ), #164, .T. ) ;
#148 = CALENDAR_DATE ( 2021, 26, 11 ) ;
#149 =( NAMED_UNIT ( * ) SI_UNIT ( $, .STERADIAN. ) SOLID_ANGLE_UNIT ( ) );
#150 = ADVANCED_FACE ( 'NONE', ( #237, #68 ), #178, .T. ) ;
#151 = ORIENTED_EDGE ( 'NONE', *, *, #18, .T. ) ;
#152 = ADVANCED_FACE ( 'NONE', ( #4, #144 ), #6, .T. ) ;
#153 = LOCAL_TIME ( 11, 3, 39.00000000000000000, #222 ) ;
#154 = PLANE ( 'NONE',  #121 ) ;
#155 = EDGE_LOOP ( 'NONE', ( #216 ) ) ;
#156 = CARTESIAN_POINT ( 'NONE',  ( 4.529038040982096138E-14, -1.171572366811798133E-15, 12.97168050304615683 ) ) ;
#157 = CARTESIAN_POINT ( 'NONE',  ( -2.100865306030990154E-30, 2.358059892324149143, -6.017117384127536326E-16 ) ) ;
#158 = DIRECTION ( 'NONE',  ( 0.0000000000000000000, 1.000000000000000000, 0.0000000000000000000 ) ) ;
#159 = AXIS2_PLACEMENT_3D ( 'NONE', #156, #221, #122 ) ;
#160 = EDGE_LOOP ( 'NONE', ( #114 ) ) ;
#161 = CC_DESIGN_PERSON_AND_ORGANIZATION_ASSIGNMENT ( #239, #13, ( #47 ) ) ;
#162 = CARTESIAN_POINT ( 'NONE',  ( 2.779219145719134403E-13, -7.189289034394536528E-15, 79.60000000000000853 ) ) ;
#163 = DIRECTION ( 'NONE',  ( -1.781859157071991903E-30, 1.000000000000000000, -5.103447460104119574E-16 ) ) ;
#164 = PLANE ( 'NONE',  #110 ) ;
#165 = DIRECTION ( 'NONE',  ( 3.153425691349006731E-31, 1.000000000000000000, 9.031770143711729009E-17 ) ) ;
#166 = PERSON_AND_ORGANIZATION_ROLE ( 'design_supplier' ) ;
#167 = PERSON_AND_ORGANIZATION ( #54, #130 ) ;
#168 = APPLICATION_PROTOCOL_DEFINITION ( 'international standard', 'config_control_design', 1994, #67 ) ;
#169 = DATE_TIME_ROLE ( 'creation_date' ) ;
#170 = EDGE_CURVE ( 'NONE', #84, #84, #14, .T. ) ;
#171 = EDGE_LOOP ( 'NONE', ( #113 ) ) ;
#172 = MANIFOLD_SOLID_BREP ( 'Corps-Déplacer/Copier1[1]', #115 ) ;
#173 = DIRECTION ( 'NONE',  ( 0.0000000000000000000, 1.000000000000000000, 0.0000000000000000000 ) ) ;
#174 = AXIS2_PLACEMENT_3D ( 'NONE', #230, #66, #97 ) ;
#175 = FACE_OUTER_BOUND ( 'NONE', #228, .T. ) ;
#176 = DIRECTION ( 'NONE',  ( 3.153425691349006731E-31, 1.000000000000000000, 9.031770143711729009E-17 ) ) ;
#177 = APPROVAL ( #11, 'UNSPECIFIED' ) ;
#178 = CYLINDRICAL_SURFACE ( 'NONE', #92, 2.588999999999995527 ) ;
#179 = AXIS2_PLACEMENT_3D ( 'NONE', #99, #194, #7 ) ;
#180 = DIRECTION ( 'NONE',  ( -3.491481338843133355E-15, 9.031770143711729009E-17, -1.000000000000000000 ) ) ;
#181 = EDGE_CURVE ( 'NONE', #203, #203, #46, .T. ) ;
#182 = MECHANICAL_CONTEXT ( 'NONE', #67, 'mechanical' ) ;
#183 = CIRCLE ( 'NONE', #30, 1.599999999999994982 ) ;
#184 = APPROVAL_PERSON_ORGANIZATION ( #128, #177, #107 ) ;
#185 =( NAMED_UNIT ( * ) PLANE_ANGLE_UNIT ( ) SI_UNIT ( $, .RADIAN. ) );
#186 = ADVANCED_FACE ( 'NONE', ( #175 ), #235, .T. ) ;
#187 = PERSON_AND_ORGANIZATION ( #54, #130 ) ;
#188 =( GEOMETRIC_REPRESENTATION_CONTEXT ( 3 ) GLOBAL_UNCERTAINTY_ASSIGNED_CONTEXT ( ( #125 ) ) GLOBAL_UNIT_ASSIGNED_CONTEXT ( ( #71, #185, #149 ) ) REPRESENTATION_CONTEXT ( 'NONE', 'WORKASPACE' ) );
#189 = CARTESIAN_POINT ( 'NONE',  ( 2.779219145719134403E-13, 1.999999999999988010, 79.60000000000000853 ) ) ;
#190 = EDGE_LOOP ( 'NONE', ( #96 ) ) ;
#191 = AXIS2_PLACEMENT_3D ( 'NONE', #162, #61, #158 ) ;
#192 = APPROVAL_DATE_TIME ( #136, #227 ) ;
#193 = CALENDAR_DATE ( 2021, 26, 11 ) ;
#194 = DIRECTION ( 'NONE',  ( -3.491481338843133355E-15, 9.031770143711729009E-17, -1.000000000000000000 ) ) ;
#195 = EDGE_LOOP ( 'NONE', ( #151 ) ) ;
#196 = APPROVAL_PERSON_ORGANIZATION ( #167, #55, #48 ) ;
#197 = DIRECTION ( 'NONE',  ( 1.781859157071991903E-30, -1.000000000000000000, 5.103447460104119574E-16 ) ) ;
#198 = VERTEX_POINT ( 'NONE', #41 ) ;
#199 = CARTESIAN_POINT ( 'NONE',  ( 0.0000000000000000000, 2.358059892324149143, 0.0000000000000000000 ) ) ;
#200 = DIRECTION ( 'NONE',  ( -3.491481338843133355E-15, -5.103447460104119574E-16, -1.000000000000000000 ) ) ;
#201 = VERTEX_POINT ( 'NONE', #27 ) ;
#202 = CARTESIAN_POINT ( 'NONE',  ( 0.0000000000000000000, 0.0000000000000000000, 0.0000000000000000000 ) ) ;
#203 = VERTEX_POINT ( 'NONE', #208 ) ;
#204 = CIRCLE ( 'NONE', #56, 2.588999999999998636 ) ;
#205 = COORDINATED_UNIVERSAL_TIME_OFFSET ( 1, 0, .AHEAD. ) ;
#206 = CC_DESIGN_PERSON_AND_ORGANIZATION_ASSIGNMENT ( #102, #207, ( #74 ) ) ;
#207 = PERSON_AND_ORGANIZATION_ROLE ( 'creator' ) ;
#208 = CARTESIAN_POINT ( 'NONE',  ( 4.885231259955589808E-14, 1.999999999999990452, 13.99185842870424956 ) ) ;
#209 = DATE_AND_TIME ( #148, #70 ) ;
#210 = APPROVAL_PERSON_ORGANIZATION ( #15, #227, #59 ) ;
#211 = DIRECTION ( 'NONE',  ( 0.0000000000000000000, 1.000000000000000000, 0.0000000000000000000 ) ) ;
#212 = FACE_BOUND ( 'NONE', #75, .T. ) ;
#213 = EDGE_CURVE ( 'NONE', #29, #29, #26, .T. ) ;
#214 = FACE_OUTER_BOUND ( 'NONE', #94, .T. ) ;
#215 = DIRECTION ( 'NONE',  ( 3.491481338843133355E-15, -9.031770143711729009E-17, 1.000000000000000000 ) ) ;
#216 = ORIENTED_EDGE ( 'NONE', *, *, #213, .F. ) ;
#217 = FACE_OUTER_BOUND ( 'NONE', #171, .T. ) ;
#218 = DIRECTION ( 'NONE',  ( -3.491481338843133355E-15, -5.103447460104119574E-16, -1.000000000000000000 ) ) ;
#219 = AXIS2_PLACEMENT_3D ( 'NONE', #64, #83, #165 ) ;
#220 = LOCAL_TIME ( 11, 3, 39.00000000000000000, #91 ) ;
#221 = DIRECTION ( 'NONE',  ( -3.491481338843133355E-15, 9.031770143711729009E-17, -1.000000000000000000 ) ) ;
#222 = COORDINATED_UNIVERSAL_TIME_OFFSET ( 1, 0, .AHEAD. ) ;
#223 = APPROVAL_DATE_TIME ( #209, #177 ) ;
#224 = PERSON_AND_ORGANIZATION ( #54, #130 ) ;
#225 = PRODUCT_DEFINITION_SHAPE ( 'NONE', 'NONE',  #74 ) ;
#226 = FACE_OUTER_BOUND ( 'NONE', #234, .T. ) ;
#227 = APPROVAL ( #73, 'UNSPECIFIED' ) ;
#228 = EDGE_LOOP ( 'NONE', ( #118 ) ) ;
#229 = FACE_OUTER_BOUND ( 'NONE', #155, .T. ) ;
#230 = CARTESIAN_POINT ( 'NONE',  ( 4.885231259955589808E-14, -1.263712492114123485E-15, 13.99185842870424956 ) ) ;
#231 = DIRECTION ( 'NONE',  ( -3.491481338843133355E-15, -5.103447460104119574E-16, -1.000000000000000000 ) ) ;
#232 = CONICAL_SURFACE ( 'NONE', #44, 2.358059892324149143, 0.5235987755982978165 ) ;
#233 = DIRECTION ( 'NONE',  ( 1.781859157071991903E-30, -1.000000000000000000, 5.103447460104119574E-16 ) ) ;
#234 = EDGE_LOOP ( 'NONE', ( #142 ) ) ;
#235 = PLANE ( 'NONE',  #21 ) ;
#236 = FACE_BOUND ( 'NONE', #160, .T. ) ;
#237 = FACE_OUTER_BOUND ( 'NONE', #190, .T. ) ;
#238 = AXIS2_PLACEMENT_3D ( 'NONE', #89, #87, #69 ) ;
#239 = PERSON_AND_ORGANIZATION ( #54, #130 ) ;
#240 = APPROVAL_STATUS ( 'not_yet_approved' ) ;
#241 = CONICAL_SURFACE ( 'NONE', #133, 1.999999999999995337, 0.7853981633974516097 ) ;
#242 = CALENDAR_DATE ( 2021, 26, 11 ) ;
#243 = CLOSED_SHELL ( 'NONE', ( #147, #150, #106, #82 ) ) ;
ENDSEC;
END-ISO-10303-21;
