ISO-10303-21;
HEADER;
FILE_DESCRIPTION (( 'STEP AP203' ),
    '1' );
FILE_NAME ('321420.step',
    '2021-11-26T10:03:38',
    ( '' ),
    ( '' ),
    'SwSTEP 2.0',
    'SolidWorks 2019',
    '' );
FILE_SCHEMA (( 'CONFIG_CONTROL_DESIGN' ));
ENDSEC;

DATA;
#1 = SECURITY_CLASSIFICATION_LEVEL ( 'unclassified' ) ;
#2 = DIRECTION ( 'NONE',  ( -2.385052562708658825E-30, 1.000000000000000000, -6.713326145421101518E-16 ) ) ;
#3 = CLOSED_SHELL ( 'NONE', ( #169, #164, #81, #44, #40 ) ) ;
#4 = CC_DESIGN_APPROVAL ( #21, ( #147 ) ) ;
#5 = CARTESIAN_POINT ( 'NONE',  ( 1.396592535537257681E-15, 2.039363361879745892E-16, 0.4000000000000012434 ) ) ;
#6 = EDGE_LOOP ( 'NONE', ( #33 ) ) ;
#7 = APPROVAL_DATE_TIME ( #163, #205 ) ;
#8 = DIRECTION ( 'NONE',  ( -3.491481338843133355E-15, 9.031770143711729009E-17, -1.000000000000000000 ) ) ;
#9 = PERSON_AND_ORGANIZATION ( #66, #14 ) ;
#10 = CARTESIAN_POINT ( 'NONE',  ( 4.885231259955589808E-14, 1.999999999999990452, 13.99185842870424956 ) ) ;
#11 = PLANE ( 'NONE',  #19 ) ;
#12 = CARTESIAN_POINT ( 'NONE',  ( 0.0000000000000000000, 0.0000000000000000000, 0.0000000000000000000 ) ) ;
#13 = DESIGN_CONTEXT ( 'detailed design', #42, 'design' ) ;
#14 = ORGANIZATION ( 'UNSPECIFIED', 'UNSPECIFIED', '' ) ;
#15 = CONICAL_SURFACE ( 'NONE', #76, 2.353059892324147917, 0.5235987755982978165 ) ;
#16 = COORDINATED_UNIVERSAL_TIME_OFFSET ( 1, 0, .AHEAD. ) ;
#17 = ADVANCED_FACE ( 'NONE', ( #218 ), #11, .T. ) ;
#18 = AXIS2_PLACEMENT_3D ( 'NONE', #5, #80, #150 ) ;
#19 = AXIS2_PLACEMENT_3D ( 'NONE', #212, #236, #155 ) ;
#20 = DIRECTION ( 'NONE',  ( -3.491481338843133355E-15, 9.031770143711729009E-17, -1.000000000000000000 ) ) ;
#21 = APPROVAL ( #180, 'UNSPECIFIED' ) ;
#22 = DIRECTION ( 'NONE',  ( 0.0000000000000000000, 1.000000000000000000, 0.0000000000000000000 ) ) ;
#23 = EDGE_LOOP ( 'NONE', ( #200 ) ) ;
#24 = DIRECTION ( 'NONE',  ( 3.491481338843133355E-15, -9.031770143711729009E-17, 1.000000000000000000 ) ) ;
#25 = ORIENTED_EDGE ( 'NONE', *, *, #210, .T. ) ;
#26 = APPROVAL_DATE_TIME ( #118, #97 ) ;
#27 = AXIS2_PLACEMENT_3D ( 'NONE', #12, #156, #160 ) ;
#28 = CIRCLE ( 'NONE', #148, 2.583999999999991637 ) ;
#29 = DIRECTION ( 'NONE',  ( 3.153425691349006731E-31, 1.000000000000000000, 9.031770143711729009E-17 ) ) ;
#30 = DATE_AND_TIME ( #85, #143 ) ;
#31 = FACE_OUTER_BOUND ( 'NONE', #89, .T. ) ;
#32 = VERTEX_POINT ( 'NONE', #158 ) ;
#33 = ORIENTED_EDGE ( 'NONE', *, *, #240, .F. ) ;
#34 = CARTESIAN_POINT ( 'NONE',  ( 2.779219145719134403E-13, 1.999999999999988010, 79.60000000000000853 ) ) ;
#35 = FACE_OUTER_BOUND ( 'NONE', #84, .T. ) ;
#36 = CC_DESIGN_APPROVAL ( #97, ( #54 ) ) ;
#37 = SHAPE_DEFINITION_REPRESENTATION ( #153, #103 ) ;
#38 = PRODUCT_DEFINITION ( 'UNKNOWN', '', #54, #13 ) ;
#39 = DIRECTION ( 'NONE',  ( -3.491481338843133355E-15, 9.031770143711729009E-17, -1.000000000000000000 ) ) ;
#40 = ADVANCED_FACE ( 'NONE', ( #51 ), #191, .T. ) ;
#41 = DIRECTION ( 'NONE',  ( -1.780099780280876762E-30, 1.000000000000000000, -5.098408404699348583E-16 ) ) ;
#42 = APPLICATION_CONTEXT ( 'configuration controlled 3d designs of mechanical parts and assemblies' ) ;
#43 = CARTESIAN_POINT ( 'NONE',  ( 2.779219145719134403E-13, -7.189289034394536528E-15, 79.60000000000000853 ) ) ;
#44 = ADVANCED_FACE ( 'NONE', ( #234, #45 ), #233, .T. ) ;
#45 = FACE_OUTER_BOUND ( 'NONE', #157, .T. ) ;
#46 = CYLINDRICAL_SURFACE ( 'NONE', #223, 1.999999999999993561 ) ;
#47 = CALENDAR_DATE ( 2021, 26, 11 ) ;
#48 = ORIENTED_EDGE ( 'NONE', *, *, #206, .T. ) ;
#49 = CC_DESIGN_SECURITY_CLASSIFICATION ( #147, ( #54 ) ) ;
#50 = CONICAL_SURFACE ( 'NONE', #182, 1.999999999999995337, 0.7853981633974516097 ) ;
#51 = FACE_OUTER_BOUND ( 'NONE', #106, .T. ) ;
#52 = PERSON_AND_ORGANIZATION_ROLE ( 'design_supplier' ) ;
#53 = PERSON_AND_ORGANIZATION ( #66, #14 ) ;
#54 = PRODUCT_DEFINITION_FORMATION_WITH_SPECIFIED_SOURCE ( 'ANY', '', #61, .NOT_KNOWN. ) ;
#55 = PRODUCT_RELATED_PRODUCT_CATEGORY ( 'detail', '', ( #61 ) ) ;
#56 = DATE_AND_TIME ( #167, #72 ) ;
#57 = DIRECTION ( 'NONE',  ( -3.491481338843133355E-15, 9.031770143711729009E-17, -1.000000000000000000 ) ) ;
#58 = ADVANCED_FACE ( 'NONE', ( #31, #74 ), #133, .T. ) ;
#59 = LOCAL_TIME ( 11, 3, 38.00000000000000000, #16 ) ;
#60 = VERTEX_POINT ( 'NONE', #231 ) ;
#61 = PRODUCT ( '321420', '321420', '', ( #139 ) ) ;
#62 = CARTESIAN_POINT ( 'NONE',  ( 4.532061752518373011E-14, 2.583999999999998298, 12.98034075708399904 ) ) ;
#63 = EDGE_LOOP ( 'NONE', ( #239 ) ) ;
#64 = APPROVAL_PERSON_ORGANIZATION ( #68, #97, #199 ) ;
#65 = DIRECTION ( 'NONE',  ( -3.491481338843133355E-15, -5.098408404699348583E-16, -1.000000000000000000 ) ) ;
#66 = PERSON ( 'UNSPECIFIED', 'UNSPECIFIED', 'UNSPECIFIED', ('UNSPECIFIED'), ('UNSPECIFIED'), ('UNSPECIFIED') ) ;
#67 = ORIENTED_EDGE ( 'NONE', *, *, #117, .T. ) ;
#68 = PERSON_AND_ORGANIZATION ( #66, #14 ) ;
#69 = DIRECTION ( 'NONE',  ( -3.491481338843133355E-15, -5.098408404699348583E-16, -1.000000000000000000 ) ) ;
#70 = COORDINATED_UNIVERSAL_TIME_OFFSET ( 1, 0, .AHEAD. ) ;
#71 = ORIENTED_EDGE ( 'NONE', *, *, #142, .T. ) ;
#72 = LOCAL_TIME ( 11, 3, 38.00000000000000000, #181 ) ;
#73 = PERSON_AND_ORGANIZATION ( #66, #14 ) ;
#74 = FACE_OUTER_BOUND ( 'NONE', #6, .T. ) ;
#75 = APPLICATION_PROTOCOL_DEFINITION ( 'international standard', 'config_control_design', 1994, #42 ) ;
#76 = AXIS2_PLACEMENT_3D ( 'NONE', #144, #170, #211 ) ;
#77 = APPROVAL_ROLE ( '' ) ;
#78 = DIRECTION ( 'NONE',  ( -3.153425691349006731E-31, -1.000000000000000000, -9.031770143711729009E-17 ) ) ;
#79 = DIRECTION ( 'NONE',  ( 0.0000000000000000000, 1.000000000000000000, 0.0000000000000000000 ) ) ;
#80 = DIRECTION ( 'NONE',  ( -3.491481338843133355E-15, -5.098408404699348583E-16, -1.000000000000000000 ) ) ;
#81 = ADVANCED_FACE ( 'NONE', ( #220, #214 ), #46, .T. ) ;
#82 = CARTESIAN_POINT ( 'NONE',  ( 2.793185071074506684E-13, -7.225416114969383207E-15, 80.00000000000000000 ) ) ;
#83 = DIRECTION ( 'NONE',  ( -3.491481338843133355E-15, 9.031770143711729009E-17, -1.000000000000000000 ) ) ;
#84 = EDGE_LOOP ( 'NONE', ( #216 ) ) ;
#85 = CALENDAR_DATE ( 2021, 26, 11 ) ;
#86 = AXIS2_PLACEMENT_3D ( 'NONE', #138, #69, #116 ) ;
#87 = EDGE_LOOP ( 'NONE', ( #161 ) ) ;
#88 = CC_DESIGN_PERSON_AND_ORGANIZATION_ASSIGNMENT ( #9, #238, ( #54 ) ) ;
#89 = EDGE_LOOP ( 'NONE', ( #67 ) ) ;
#90 = APPROVAL_STATUS ( 'not_yet_approved' ) ;
#91 = DIRECTION ( 'NONE',  ( -3.491481338843133355E-15, 9.031770143711729009E-17, -1.000000000000000000 ) ) ;
#92 = UNCERTAINTY_MEASURE_WITH_UNIT (LENGTH_MEASURE( 1.000000000000000082E-05 ), #179, 'distance_accuracy_value', 'NONE');
#93 = CARTESIAN_POINT ( 'NONE',  ( 2.793185071074506684E-13, 1.599999999999987876, 80.00000000000000000 ) ) ;
#94 = PERSON_AND_ORGANIZATION_ROLE ( 'classification_officer' ) ;
#95 = AXIS2_PLACEMENT_3D ( 'NONE', #132, #230, #186 ) ;
#96 = FACE_OUTER_BOUND ( 'NONE', #87, .T. ) ;
#97 = APPROVAL ( #90, 'UNSPECIFIED' ) ;
#98 = CIRCLE ( 'NONE', #18, 2.583999999999997854 ) ;
#99 = FACE_BOUND ( 'NONE', #172, .T. ) ;
#100 = CARTESIAN_POINT ( 'NONE',  ( 4.532061752518373011E-14, -1.172354541050357626E-15, 12.98034075708399904 ) ) ;
#101 = CALENDAR_DATE ( 2021, 26, 11 ) ;
#102 = CARTESIAN_POINT ( 'NONE',  ( 0.0000000000000000000, 0.0000000000000000000, 0.0000000000000000000 ) ) ;
#103 = ADVANCED_BREP_SHAPE_REPRESENTATION ( '321420', ( #203, #195, #27 ), #192 ) ;
#104 = CC_DESIGN_APPROVAL ( #205, ( #38 ) ) ;
#105 = ADVANCED_FACE ( 'NONE', ( #35, #127 ), #15, .T. ) ;
#106 = EDGE_LOOP ( 'NONE', ( #71 ) ) ;
#107 = DATE_TIME_ROLE ( 'creation_date' ) ;
#108 = VERTEX_POINT ( 'NONE', #10 ) ;
#109 = CC_DESIGN_DATE_AND_TIME_ASSIGNMENT ( #56, #224, ( #147 ) ) ;
#110 = PERSON_AND_ORGANIZATION ( #66, #14 ) ;
#111 = AXIS2_PLACEMENT_3D ( 'NONE', #173, #83, #152 ) ;
#112 = DIRECTION ( 'NONE',  ( -3.491481338843133355E-15, -5.098408404699348583E-16, -1.000000000000000000 ) ) ;
#113 = AXIS2_PLACEMENT_3D ( 'NONE', #43, #208, #22 ) ;
#114 = EDGE_LOOP ( 'NONE', ( #48 ) ) ;
#115 = CARTESIAN_POINT ( 'NONE',  ( 2.779219145719134403E-13, -7.189289034394536528E-15, 79.60000000000000853 ) ) ;
#116 = DIRECTION ( 'NONE',  ( -1.780099780280876412E-30, 1.000000000000000000, -5.098408404699349569E-16 ) ) ;
#117 = EDGE_CURVE ( 'NONE', #60, #60, #28, .T. ) ;
#118 = DATE_AND_TIME ( #47, #183 ) ;
#119 = EDGE_LOOP ( 'NONE', ( #232 ) ) ;
#120 = CIRCLE ( 'NONE', #129, 1.599999999999994982 ) ;
#121 = AXIS2_PLACEMENT_3D ( 'NONE', #82, #24, #78 ) ;
#122 = ORIENTED_EDGE ( 'NONE', *, *, #117, .F. ) ;
#123 = APPLICATION_PROTOCOL_DEFINITION ( 'international standard', 'config_control_design', 1994, #227 ) ;
#124 = APPROVAL_STATUS ( 'not_yet_approved' ) ;
#125 = APPROVAL_DATE_TIME ( #204, #21 ) ;
#126 = CC_DESIGN_PERSON_AND_ORGANIZATION_ASSIGNMENT ( #235, #201, ( #61 ) ) ;
#127 = FACE_BOUND ( 'NONE', #63, .T. ) ;
#128 = CALENDAR_DATE ( 2021, 26, 11 ) ;
#129 = AXIS2_PLACEMENT_3D ( 'NONE', #226, #20, #151 ) ;
#130 = DIRECTION ( 'NONE',  ( -3.491481338843133355E-15, -5.098408404699348583E-16, -1.000000000000000000 ) ) ;
#131 = VERTEX_POINT ( 'NONE', #62 ) ;
#132 = CARTESIAN_POINT ( 'NONE',  ( 4.532061752518373011E-14, -1.172354541050357626E-15, 12.98034075708399904 ) ) ;
#133 = CYLINDRICAL_SURFACE ( 'NONE', #86, 2.583999999999994746 ) ;
#134 = COORDINATED_UNIVERSAL_TIME_OFFSET ( 1, 0, .AHEAD. ) ;
#135 = EDGE_LOOP ( 'NONE', ( #25 ) ) ;
#136 = CLOSED_SHELL ( 'NONE', ( #17, #58, #105, #141 ) ) ;
#137 = VERTEX_POINT ( 'NONE', #34 ) ;
#138 = CARTESIAN_POINT ( 'NONE',  ( 0.0000000000000000000, 0.0000000000000000000, 0.0000000000000000000 ) ) ;
#139 = MECHANICAL_CONTEXT ( 'NONE', #227, 'mechanical' ) ;
#140 = CIRCLE ( 'NONE', #113, 1.999999999999995337 ) ;
#141 = ADVANCED_FACE ( 'NONE', ( #154 ), #146, .T. ) ;
#142 = EDGE_CURVE ( 'NONE', #131, #131, #194, .T. ) ;
#143 = LOCAL_TIME ( 11, 3, 38.00000000000000000, #196 ) ;
#144 = CARTESIAN_POINT ( 'NONE',  ( 4.188681397313958998E-30, 6.116489354558389717E-31, 1.199686033178638005E-15 ) ) ;
#145 = CARTESIAN_POINT ( 'NONE',  ( 4.188681397313958998E-30, 6.116489354558389717E-31, 1.199686033178638005E-15 ) ) ;
#146 = PLANE ( 'NONE',  #176 ) ;
#147 = SECURITY_CLASSIFICATION ( '', '', #1 ) ;
#148 = AXIS2_PLACEMENT_3D ( 'NONE', #209, #130, #2 ) ;
#149 = CC_DESIGN_DATE_AND_TIME_ASSIGNMENT ( #30, #107, ( #38 ) ) ;
#150 = DIRECTION ( 'NONE',  ( -1.788789422031489915E-30, 1.000000000000000000, -5.034994609065814305E-16 ) ) ;
#151 = DIRECTION ( 'NONE',  ( 0.0000000000000000000, 1.000000000000000000, 0.0000000000000000000 ) ) ;
#152 = DIRECTION ( 'NONE',  ( 3.153425691349006731E-31, 1.000000000000000000, 9.031770143711729009E-17 ) ) ;
#153 = PRODUCT_DEFINITION_SHAPE ( 'NONE', 'NONE',  #38 ) ;
#154 = FACE_OUTER_BOUND ( 'NONE', #23, .T. ) ;
#155 = DIRECTION ( 'NONE',  ( 1.780099780280876412E-30, -1.000000000000000000, 5.098408404699348583E-16 ) ) ;
#156 = DIRECTION ( 'NONE',  ( 0.0000000000000000000, 0.0000000000000000000, 1.000000000000000000 ) ) ;
#157 = EDGE_LOOP ( 'NONE', ( #159 ) ) ;
#158 = CARTESIAN_POINT ( 'NONE',  ( 0.0000000000000000000, 2.353059892324147917, 0.0000000000000000000 ) ) ;
#159 = ORIENTED_EDGE ( 'NONE', *, *, #142, .F. ) ;
#160 = DIRECTION ( 'NONE',  ( 1.000000000000000000, 0.0000000000000000000, 0.0000000000000000000 ) ) ;
#161 = ORIENTED_EDGE ( 'NONE', *, *, #210, .F. ) ;
#162 = CC_DESIGN_PERSON_AND_ORGANIZATION_ASSIGNMENT ( #73, #52, ( #54 ) ) ;
#163 = DATE_AND_TIME ( #101, #165 ) ;
#164 = ADVANCED_FACE ( 'NONE', ( #99, #96 ), #50, .T. ) ;
#165 = LOCAL_TIME ( 11, 3, 38.00000000000000000, #70 ) ;
#166 = CC_DESIGN_PERSON_AND_ORGANIZATION_ASSIGNMENT ( #225, #94, ( #147 ) ) ;
#167 = CALENDAR_DATE ( 2021, 26, 11 ) ;
#168 = PLANE ( 'NONE',  #121 ) ;
#169 = ADVANCED_FACE ( 'NONE', ( #190 ), #168, .T. ) ;
#170 = DIRECTION ( 'NONE',  ( 3.491481338843133355E-15, 5.098408404699348583E-16, 1.000000000000000000 ) ) ;
#171 = CIRCLE ( 'NONE', #175, 1.999999999999991784 ) ;
#172 = EDGE_LOOP ( 'NONE', ( #193 ) ) ;
#173 = CARTESIAN_POINT ( 'NONE',  ( 4.532061752518373011E-14, 2.583999999999998298, 12.98034075708399904 ) ) ;
#174 =( NAMED_UNIT ( * ) PLANE_ANGLE_UNIT ( ) SI_UNIT ( $, .RADIAN. ) );
#175 = AXIS2_PLACEMENT_3D ( 'NONE', #229, #57, #79 ) ;
#176 = AXIS2_PLACEMENT_3D ( 'NONE', #187, #65, #185 ) ;
#177 = CC_DESIGN_PERSON_AND_ORGANIZATION_ASSIGNMENT ( #215, #221, ( #38 ) ) ;
#178 = EDGE_LOOP ( 'NONE', ( #122 ) ) ;
#179 =( LENGTH_UNIT ( ) NAMED_UNIT ( * ) SI_UNIT ( .MILLI., .METRE. ) );
#180 = APPROVAL_STATUS ( 'not_yet_approved' ) ;
#181 = COORDINATED_UNIVERSAL_TIME_OFFSET ( 1, 0, .AHEAD. ) ;
#182 = AXIS2_PLACEMENT_3D ( 'NONE', #115, #39, #213 ) ;
#183 = LOCAL_TIME ( 11, 3, 38.00000000000000000, #134 ) ;
#184 = AXIS2_PLACEMENT_3D ( 'NONE', #100, #91, #198 ) ;
#185 = DIRECTION ( 'NONE',  ( -1.780099780280876412E-30, 1.000000000000000000, -5.098408404699348583E-16 ) ) ;
#186 = DIRECTION ( 'NONE',  ( 0.0000000000000000000, 1.000000000000000000, 0.0000000000000000000 ) ) ;
#187 = CARTESIAN_POINT ( 'NONE',  ( -2.094340698656979499E-30, 2.353059892324147917, -5.998430165893190027E-16 ) ) ;
#188 = EDGE_CURVE ( 'NONE', #32, #32, #219, .T. ) ;
#189 = ORIENTED_EDGE ( 'NONE', *, *, #197, .F. ) ;
#190 = FACE_OUTER_BOUND ( 'NONE', #237, .T. ) ;
#191 = PLANE ( 'NONE',  #111 ) ;
#192 =( GEOMETRIC_REPRESENTATION_CONTEXT ( 3 ) GLOBAL_UNCERTAINTY_ASSIGNED_CONTEXT ( ( #92 ) ) GLOBAL_UNIT_ASSIGNED_CONTEXT ( ( #179, #174, #242 ) ) REPRESENTATION_CONTEXT ( 'NONE', 'WORKASPACE' ) );
#193 = ORIENTED_EDGE ( 'NONE', *, *, #197, .T. ) ;
#194 = CIRCLE ( 'NONE', #95, 2.583999999999999631 ) ;
#195 = MANIFOLD_SOLID_BREP ( 'Corps-Déplacer/Copier1[2]', #136 ) ;
#196 = COORDINATED_UNIVERSAL_TIME_OFFSET ( 1, 0, .AHEAD. ) ;
#197 = EDGE_CURVE ( 'NONE', #222, #222, #120, .T. ) ;
#198 = DIRECTION ( 'NONE',  ( 0.0000000000000000000, 1.000000000000000000, 0.0000000000000000000 ) ) ;
#199 = APPROVAL_ROLE ( '' ) ;
#200 = ORIENTED_EDGE ( 'NONE', *, *, #188, .T. ) ;
#201 = PERSON_AND_ORGANIZATION_ROLE ( 'design_owner' ) ;
#202 = APPROVAL_ROLE ( '' ) ;
#203 = MANIFOLD_SOLID_BREP ( 'Corps-Déplacer/Copier1[1]', #3 ) ;
#204 = DATE_AND_TIME ( #128, #59 ) ;
#205 = APPROVAL ( #124, 'UNSPECIFIED' ) ;
#206 = EDGE_CURVE ( 'NONE', #108, #108, #171, .T. ) ;
#207 = APPROVAL_PERSON_ORGANIZATION ( #53, #205, #202 ) ;
#208 = DIRECTION ( 'NONE',  ( -3.491481338843133355E-15, 9.031770143711729009E-17, -1.000000000000000000 ) ) ;
#209 = CARTESIAN_POINT ( 'NONE',  ( 4.532061752518373642E-14, 6.617907841177857569E-15, 12.98034075708400081 ) ) ;
#210 = EDGE_CURVE ( 'NONE', #137, #137, #140, .T. ) ;
#211 = DIRECTION ( 'NONE',  ( 1.780099780280876762E-30, -1.000000000000000000, 5.098408404699348583E-16 ) ) ;
#212 = CARTESIAN_POINT ( 'NONE',  ( 4.532061752518373011E-14, 6.617907841177856780E-15, 12.98034075708399904 ) ) ;
#213 = DIRECTION ( 'NONE',  ( 0.0000000000000000000, 1.000000000000000000, 0.0000000000000000000 ) ) ;
#214 = FACE_OUTER_BOUND ( 'NONE', #119, .T. ) ;
#215 = PERSON_AND_ORGANIZATION ( #66, #14 ) ;
#216 = ORIENTED_EDGE ( 'NONE', *, *, #240, .T. ) ;
#217 = CARTESIAN_POINT ( 'NONE',  ( 1.396592535537253145E-15, 2.583999999999997854, 0.3999999999999999667 ) ) ;
#218 = FACE_OUTER_BOUND ( 'NONE', #178, .T. ) ;
#219 = CIRCLE ( 'NONE', #228, 2.353059892324147917 ) ;
#220 = FACE_OUTER_BOUND ( 'NONE', #135, .T. ) ;
#221 = PERSON_AND_ORGANIZATION_ROLE ( 'creator' ) ;
#222 = VERTEX_POINT ( 'NONE', #93 ) ;
#223 = AXIS2_PLACEMENT_3D ( 'NONE', #102, #8, #29 ) ;
#224 = DATE_TIME_ROLE ( 'classification_date' ) ;
#225 = PERSON_AND_ORGANIZATION ( #66, #14 ) ;
#226 = CARTESIAN_POINT ( 'NONE',  ( 2.793185071074506684E-13, -7.225416114969383207E-15, 80.00000000000000000 ) ) ;
#227 = APPLICATION_CONTEXT ( 'configuration controlled 3d designs of mechanical parts and assemblies' ) ;
#228 = AXIS2_PLACEMENT_3D ( 'NONE', #145, #112, #41 ) ;
#229 = CARTESIAN_POINT ( 'NONE',  ( 4.885231259955589808E-14, -1.263712492114123485E-15, 13.99185842870424956 ) ) ;
#230 = DIRECTION ( 'NONE',  ( -3.491481338843133355E-15, 9.031770143711729009E-17, -1.000000000000000000 ) ) ;
#231 = CARTESIAN_POINT ( 'NONE',  ( 4.532061752518373011E-14, 2.583999999999998298, 12.98034075708399904 ) ) ;
#232 = ORIENTED_EDGE ( 'NONE', *, *, #206, .F. ) ;
#233 = CONICAL_SURFACE ( 'NONE', #184, 2.583999999999999631, 0.5235987755982932645 ) ;
#234 = FACE_BOUND ( 'NONE', #114, .T. ) ;
#235 = PERSON_AND_ORGANIZATION ( #66, #14 ) ;
#236 = DIRECTION ( 'NONE',  ( 3.491481338843133355E-15, 5.098408404699348583E-16, 1.000000000000000000 ) ) ;
#237 = EDGE_LOOP ( 'NONE', ( #189 ) ) ;
#238 = PERSON_AND_ORGANIZATION_ROLE ( 'creator' ) ;
#239 = ORIENTED_EDGE ( 'NONE', *, *, #188, .F. ) ;
#240 = EDGE_CURVE ( 'NONE', #241, #241, #98, .T. ) ;
#241 = VERTEX_POINT ( 'NONE', #217 ) ;
#242 =( NAMED_UNIT ( * ) SI_UNIT ( $, .STERADIAN. ) SOLID_ANGLE_UNIT ( ) );
#243 = APPROVAL_PERSON_ORGANIZATION ( #110, #21, #77 ) ;
ENDSEC;
END-ISO-10303-21;
