ISO-10303-21;
HEADER;
FILE_DESCRIPTION (( 'STEP AP203' ),
    '1' );
FILE_NAME ('321419.step',
    '2021-11-26T10:03:38',
    ( '' ),
    ( '' ),
    'SwSTEP 2.0',
    'SolidWorks 2019',
    '' );
FILE_SCHEMA (( 'CONFIG_CONTROL_DESIGN' ));
ENDSEC;

DATA;
#1 = ORIENTED_EDGE ( 'NONE', *, *, #12, .F. ) ;
#2 = ADVANCED_FACE ( 'NONE', ( #21, #77 ), #159, .T. ) ;
#3 = CC_DESIGN_APPROVAL ( #145, ( #108 ) ) ;
#4 = FACE_OUTER_BOUND ( 'NONE', #186, .T. ) ;
#5 = CARTESIAN_POINT ( 'NONE',  ( 4.535085464054652409E-14, 6.615786690700410636E-15, 12.98900101112184835 ) ) ;
#6 = CARTESIAN_POINT ( 'NONE',  ( 4.535085464054650516E-14, 6.615786690700408270E-15, 12.98900101112184302 ) ) ;
#7 = FACE_BOUND ( 'NONE', #202, .T. ) ;
#8 = AXIS2_PLACEMENT_3D ( 'NONE', #143, #41, #174 ) ;
#9 = FACE_BOUND ( 'NONE', #38, .T. ) ;
#10 = CIRCLE ( 'NONE', #194, 1.999999999999995337 ) ;
#11 = CARTESIAN_POINT ( 'NONE',  ( -2.087827642540924106E-30, 2.348059892324148024, -5.979776031776541419E-16 ) ) ;
#12 = EDGE_CURVE ( 'NONE', #44, #44, #19, .T. ) ;
#13 = CARTESIAN_POINT ( 'NONE',  ( 0.0000000000000000000, 0.0000000000000000000, 0.0000000000000000000 ) ) ;
#14 = LOCAL_TIME ( 11, 3, 38.00000000000000000, #237 ) ;
#15 = APPROVAL_DATE_TIME ( #93, #210 ) ;
#16 = COORDINATED_UNIVERSAL_TIME_OFFSET ( 1, 0, .AHEAD. ) ;
#17 = ORIENTED_EDGE ( 'NONE', *, *, #76, .T. ) ;
#18 = SECURITY_CLASSIFICATION ( '', '', #200 ) ;
#19 = CIRCLE ( 'NONE', #170, 2.578999999999991743 ) ;
#20 = ORIENTED_EDGE ( 'NONE', *, *, #138, .F. ) ;
#21 = FACE_OUTER_BOUND ( 'NONE', #184, .T. ) ;
#22 = DIRECTION ( 'NONE',  ( -3.491481338843133355E-15, -5.093376068748963104E-16, -1.000000000000000000 ) ) ;
#23 = CARTESIAN_POINT ( 'NONE',  ( 4.535085464054651778E-14, -1.173136715288917514E-15, 12.98900101112184657 ) ) ;
#24 = DIRECTION ( 'NONE',  ( -3.491481338843133355E-15, 9.031770143711729009E-17, -1.000000000000000000 ) ) ;
#25 = PLANE ( 'NONE',  #232 ) ;
#26 = CARTESIAN_POINT ( 'NONE',  ( 4.535085464054651778E-14, 2.578999999999998405, 12.98900101112184657 ) ) ;
#27 = PLANE ( 'NONE',  #181 ) ;
#28 = VERTEX_POINT ( 'NONE', #235 ) ;
#29 = LOCAL_TIME ( 11, 3, 38.00000000000000000, #239 ) ;
#30 = VERTEX_POINT ( 'NONE', #238 ) ;
#31 = PERSON_AND_ORGANIZATION ( #39, #98 ) ;
#32 = AXIS2_PLACEMENT_3D ( 'NONE', #155, #43, #64 ) ;
#33 = ORIENTED_EDGE ( 'NONE', *, *, #141, .T. ) ;
#34 = ORIENTED_EDGE ( 'NONE', *, *, #242, .T. ) ;
#35 = ORIENTED_EDGE ( 'NONE', *, *, #122, .F. ) ;
#36 = EDGE_LOOP ( 'NONE', ( #20 ) ) ;
#37 = AXIS2_PLACEMENT_3D ( 'NONE', #120, #24, #192 ) ;
#38 = EDGE_LOOP ( 'NONE', ( #117 ) ) ;
#39 = PERSON ( 'UNSPECIFIED', 'UNSPECIFIED', 'UNSPECIFIED', ('UNSPECIFIED'), ('UNSPECIFIED'), ('UNSPECIFIED') ) ;
#40 = CC_DESIGN_SECURITY_CLASSIFICATION ( #18, ( #108 ) ) ;
#41 = DIRECTION ( 'NONE',  ( -3.491481338843133355E-15, 9.031770143711729009E-17, -1.000000000000000000 ) ) ;
#42 = ADVANCED_FACE ( 'NONE', ( #4 ), #176, .T. ) ;
#43 = DIRECTION ( 'NONE',  ( -3.491481338843133355E-15, 9.031770143711729009E-17, -1.000000000000000000 ) ) ;
#44 = VERTEX_POINT ( 'NONE', #104 ) ;
#45 = VERTEX_POINT ( 'NONE', #26 ) ;
#46 = PRODUCT_RELATED_PRODUCT_CATEGORY ( 'detail', '', ( #162 ) ) ;
#47 = DIRECTION ( 'NONE',  ( 1.778342749574720534E-30, -1.000000000000000000, 5.093376068748963104E-16 ) ) ;
#48 = PERSON_AND_ORGANIZATION_ROLE ( 'creator' ) ;
#49 = CIRCLE ( 'NONE', #142, 2.578999999999997961 ) ;
#50 = APPLICATION_PROTOCOL_DEFINITION ( 'international standard', 'config_control_design', 1994, #158 ) ;
#51 = AXIS2_PLACEMENT_3D ( 'NONE', #203, #153, #119 ) ;
#52 = CC_DESIGN_PERSON_AND_ORGANIZATION_ASSIGNMENT ( #124, #197, ( #18 ) ) ;
#53 = COORDINATED_UNIVERSAL_TIME_OFFSET ( 1, 0, .AHEAD. ) ;
#54 = ADVANCED_FACE ( 'NONE', ( #228, #7 ), #101, .T. ) ;
#55 = APPROVAL_STATUS ( 'not_yet_approved' ) ;
#56 = DATE_AND_TIME ( #243, #146 ) ;
#57 = SHAPE_DEFINITION_REPRESENTATION ( #233, #65 ) ;
#58 = CC_DESIGN_PERSON_AND_ORGANIZATION_ASSIGNMENT ( #166, #69, ( #108 ) ) ;
#59 = CC_DESIGN_PERSON_AND_ORGANIZATION_ASSIGNMENT ( #165, #183, ( #162 ) ) ;
#60 = DIRECTION ( 'NONE',  ( 0.0000000000000000000, 1.000000000000000000, 0.0000000000000000000 ) ) ;
#61 = AXIS2_PLACEMENT_3D ( 'NONE', #23, #81, #161 ) ;
#62 = DIRECTION ( 'NONE',  ( -3.491481338843133355E-15, 9.031770143711729009E-17, -1.000000000000000000 ) ) ;
#63 = VERTEX_POINT ( 'NONE', #208 ) ;
#64 = DIRECTION ( 'NONE',  ( 0.0000000000000000000, 1.000000000000000000, 0.0000000000000000000 ) ) ;
#65 = ADVANCED_BREP_SHAPE_REPRESENTATION ( '321419', ( #95, #175, #88 ), #199 ) ;
#66 = CC_DESIGN_PERSON_AND_ORGANIZATION_ASSIGNMENT ( #68, #48, ( #112 ) ) ;
#67 =( NAMED_UNIT ( * ) PLANE_ANGLE_UNIT ( ) SI_UNIT ( $, .RADIAN. ) );
#68 = PERSON_AND_ORGANIZATION ( #39, #98 ) ;
#69 = PERSON_AND_ORGANIZATION_ROLE ( 'creator' ) ;
#70 = APPROVAL_ROLE ( '' ) ;
#71 = EDGE_LOOP ( 'NONE', ( #132 ) ) ;
#72 = COORDINATED_UNIVERSAL_TIME_OFFSET ( 1, 0, .AHEAD. ) ;
#73 = CLOSED_SHELL ( 'NONE', ( #131, #2, #54, #105 ) ) ;
#74 = APPROVAL_PERSON_ORGANIZATION ( #236, #210, #70 ) ;
#75 = EDGE_LOOP ( 'NONE', ( #152 ) ) ;
#76 = EDGE_CURVE ( 'NONE', #85, #85, #49, .T. ) ;
#77 = FACE_OUTER_BOUND ( 'NONE', #75, .T. ) ;
#78 = ADVANCED_FACE ( 'NONE', ( #205, #86 ), #103, .T. ) ;
#79 = CARTESIAN_POINT ( 'NONE',  ( 4.175655285081848212E-30, 6.091449627345855393E-31, 1.195955206355308284E-15 ) ) ;
#80 = DIRECTION ( 'NONE',  ( 3.153425691349006731E-31, 1.000000000000000000, 9.031770143711729009E-17 ) ) ;
#81 = DIRECTION ( 'NONE',  ( -3.491481338843133355E-15, 9.031770143711729009E-17, -1.000000000000000000 ) ) ;
#82 = CC_DESIGN_APPROVAL ( #187, ( #18 ) ) ;
#83 = DIRECTION ( 'NONE',  ( 3.491481338843133355E-15, 5.093376068748963104E-16, 1.000000000000000000 ) ) ;
#84 = DIRECTION ( 'NONE',  ( -3.491481338843133355E-15, 9.031770143711729009E-17, -1.000000000000000000 ) ) ;
#85 = VERTEX_POINT ( 'NONE', #231 ) ;
#86 = FACE_OUTER_BOUND ( 'NONE', #241, .T. ) ;
#87 = ADVANCED_FACE ( 'NONE', ( #123 ), #27, .T. ) ;
#88 = AXIS2_PLACEMENT_3D ( 'NONE', #13, #211, #144 ) ;
#89 = MECHANICAL_CONTEXT ( 'NONE', #213, 'mechanical' ) ;
#90 = APPROVAL_DATE_TIME ( #128, #145 ) ;
#91 = DIRECTION ( 'NONE',  ( 1.778342749574720885E-30, -1.000000000000000000, 5.093376068748963104E-16 ) ) ;
#92 = UNCERTAINTY_MEASURE_WITH_UNIT (LENGTH_MEASURE( 1.000000000000000082E-05 ), #234, 'distance_accuracy_value', 'NONE');
#93 = DATE_AND_TIME ( #196, #212 ) ;
#94 = ORIENTED_EDGE ( 'NONE', *, *, #221, .F. ) ;
#95 = MANIFOLD_SOLID_BREP ( 'Corps-Déplacer/Copier1[1]', #107 ) ;
#96 = DESIGN_CONTEXT ( 'detailed design', #158, 'design' ) ;
#97 = PERSON_AND_ORGANIZATION ( #39, #98 ) ;
#98 = ORGANIZATION ( 'UNSPECIFIED', 'UNSPECIFIED', '' ) ;
#99 = CIRCLE ( 'NONE', #8, 1.599999999999994982 ) ;
#100 = ADVANCED_FACE ( 'NONE', ( #163, #121 ), #225, .T. ) ;
#101 = CONICAL_SURFACE ( 'NONE', #218, 2.348059892324148024, 0.5235987755982978165 ) ;
#102 = DIRECTION ( 'NONE',  ( -2.389676549840703632E-30, 1.000000000000000000, -6.726341512124128370E-16 ) ) ;
#103 = CYLINDRICAL_SURFACE ( 'NONE', #214, 1.999999999999993561 ) ;
#104 = CARTESIAN_POINT ( 'NONE',  ( 4.535085464054651778E-14, 2.578999999999998405, 12.98900101112184657 ) ) ;
#105 = ADVANCED_FACE ( 'NONE', ( #178 ), #25, .T. ) ;
#106 = AXIS2_PLACEMENT_3D ( 'NONE', #134, #204, #80 ) ;
#107 = CLOSED_SHELL ( 'NONE', ( #87, #100, #78, #168, #42 ) ) ;
#108 = PRODUCT_DEFINITION_FORMATION_WITH_SPECIFIED_SOURCE ( 'ANY', '', #162, .NOT_KNOWN. ) ;
#109 = CALENDAR_DATE ( 2021, 26, 11 ) ;
#110 = EDGE_LOOP ( 'NONE', ( #34 ) ) ;
#111 = ORIENTED_EDGE ( 'NONE', *, *, #122, .T. ) ;
#112 = PRODUCT_DEFINITION ( 'UNKNOWN', '', #108, #96 ) ;
#113 = ORIENTED_EDGE ( 'NONE', *, *, #12, .T. ) ;
#114 = APPROVAL_PERSON_ORGANIZATION ( #97, #187, #169 ) ;
#115 = AXIS2_PLACEMENT_3D ( 'NONE', #157, #84, #60 ) ;
#116 = EDGE_LOOP ( 'NONE', ( #111 ) ) ;
#117 = ORIENTED_EDGE ( 'NONE', *, *, #221, .T. ) ;
#118 = CC_DESIGN_APPROVAL ( #210, ( #112 ) ) ;
#119 = DIRECTION ( 'NONE',  ( -1.778342749574720534E-30, 1.000000000000000000, -5.093376068748963104E-16 ) ) ;
#120 = CARTESIAN_POINT ( 'NONE',  ( 4.535085464054651778E-14, -1.173136715288917514E-15, 12.98900101112184657 ) ) ;
#121 = FACE_OUTER_BOUND ( 'NONE', #71, .T. ) ;
#122 = EDGE_CURVE ( 'NONE', #63, #63, #99, .T. ) ;
#123 = FACE_OUTER_BOUND ( 'NONE', #198, .T. ) ;
#124 = PERSON_AND_ORGANIZATION ( #39, #98 ) ;
#125 = VERTEX_POINT ( 'NONE', #167 ) ;
#126 = PERSON_AND_ORGANIZATION_ROLE ( 'design_supplier' ) ;
#127 = EDGE_LOOP ( 'NONE', ( #1 ) ) ;
#128 = DATE_AND_TIME ( #109, #227 ) ;
#129 = CIRCLE ( 'NONE', #115, 1.999999999999991784 ) ;
#130 = DATE_AND_TIME ( #171, #29 ) ;
#131 = ADVANCED_FACE ( 'NONE', ( #173 ), #160, .T. ) ;
#132 = ORIENTED_EDGE ( 'NONE', *, *, #242, .F. ) ;
#133 = APPROVAL_STATUS ( 'not_yet_approved' ) ;
#134 = CARTESIAN_POINT ( 'NONE',  ( 4.535085464054650516E-14, 2.578999999999998405, 12.98900101112184302 ) ) ;
#135 = DIRECTION ( 'NONE',  ( -3.491481338843133355E-15, -5.093376068748963104E-16, -1.000000000000000000 ) ) ;
#136 = AXIS2_PLACEMENT_3D ( 'NONE', #79, #189, #140 ) ;
#137 = DIRECTION ( 'NONE',  ( -1.792257412380523345E-30, 1.000000000000000000, -5.044756134093083951E-16 ) ) ;
#138 = EDGE_CURVE ( 'NONE', #45, #45, #172, .T. ) ;
#139 = DIRECTION ( 'NONE',  ( 3.153425691349006731E-31, 1.000000000000000000, 9.031770143711729009E-17 ) ) ;
#140 = DIRECTION ( 'NONE',  ( -1.778342749574720885E-30, 1.000000000000000000, -5.093376068748963104E-16 ) ) ;
#141 = EDGE_CURVE ( 'NONE', #125, #125, #195, .T. ) ;
#142 = AXIS2_PLACEMENT_3D ( 'NONE', #154, #223, #137 ) ;
#143 = CARTESIAN_POINT ( 'NONE',  ( 2.793185071074506684E-13, -7.225416114969383207E-15, 80.00000000000000000 ) ) ;
#144 = DIRECTION ( 'NONE',  ( 1.000000000000000000, 0.0000000000000000000, 0.0000000000000000000 ) ) ;
#145 = APPROVAL ( #55, 'UNSPECIFIED' ) ;
#146 = LOCAL_TIME ( 11, 3, 38.00000000000000000, #72 ) ;
#147 = APPROVAL_STATUS ( 'not_yet_approved' ) ;
#148 = DATE_AND_TIME ( #164, #14 ) ;
#149 = EDGE_LOOP ( 'NONE', ( #33 ) ) ;
#150 = APPROVAL_PERSON_ORGANIZATION ( #31, #145, #215 ) ;
#151 = DATE_TIME_ROLE ( 'classification_date' ) ;
#152 = ORIENTED_EDGE ( 'NONE', *, *, #76, .F. ) ;
#153 = DIRECTION ( 'NONE',  ( -3.491481338843133355E-15, -5.093376068748963104E-16, -1.000000000000000000 ) ) ;
#154 = CARTESIAN_POINT ( 'NONE',  ( 1.396592535537257681E-15, 2.037350427499591700E-16, 0.4000000000000012434 ) ) ;
#155 = CARTESIAN_POINT ( 'NONE',  ( 2.779219145719134403E-13, -7.189289034394536528E-15, 79.60000000000000853 ) ) ;
#156 = CARTESIAN_POINT ( 'NONE',  ( 4.175655285081848212E-30, 6.091449627345855393E-31, 1.195955206355308284E-15 ) ) ;
#157 = CARTESIAN_POINT ( 'NONE',  ( 4.885231259955591070E-14, -1.263712492114123682E-15, 13.99185842870425311 ) ) ;
#158 = APPLICATION_CONTEXT ( 'configuration controlled 3d designs of mechanical parts and assemblies' ) ;
#159 = CYLINDRICAL_SURFACE ( 'NONE', #51, 2.578999999999994852 ) ;
#160 = PLANE ( 'NONE',  #240 ) ;
#161 = DIRECTION ( 'NONE',  ( 0.0000000000000000000, 1.000000000000000000, 0.0000000000000000000 ) ) ;
#162 = PRODUCT ( '321419', '321419', '', ( #89 ) ) ;
#163 = FACE_BOUND ( 'NONE', #116, .T. ) ;
#164 = CALENDAR_DATE ( 2021, 26, 11 ) ;
#165 = PERSON_AND_ORGANIZATION ( #39, #98 ) ;
#166 = PERSON_AND_ORGANIZATION ( #39, #98 ) ;
#167 = CARTESIAN_POINT ( 'NONE',  ( 0.0000000000000000000, 2.348059892324148024, 0.0000000000000000000 ) ) ;
#168 = ADVANCED_FACE ( 'NONE', ( #9, #224 ), #188, .T. ) ;
#169 = APPROVAL_ROLE ( '' ) ;
#170 = AXIS2_PLACEMENT_3D ( 'NONE', #5, #22, #102 ) ;
#171 = CALENDAR_DATE ( 2021, 26, 11 ) ;
#172 = CIRCLE ( 'NONE', #37, 2.578999999999999737 ) ;
#173 = FACE_OUTER_BOUND ( 'NONE', #127, .T. ) ;
#174 = DIRECTION ( 'NONE',  ( 0.0000000000000000000, 1.000000000000000000, 0.0000000000000000000 ) ) ;
#175 = MANIFOLD_SOLID_BREP ( 'Corps-Déplacer/Copier1[2]', #73 ) ;
#176 = PLANE ( 'NONE',  #106 ) ;
#177 = DIRECTION ( 'NONE',  ( -3.153425691349006731E-31, -1.000000000000000000, -9.031770143711729009E-17 ) ) ;
#178 = FACE_OUTER_BOUND ( 'NONE', #149, .T. ) ;
#179 = DIRECTION ( 'NONE',  ( -1.778342749574720534E-30, 1.000000000000000000, -5.093376068748963104E-16 ) ) ;
#180 = APPLICATION_PROTOCOL_DEFINITION ( 'international standard', 'config_control_design', 1994, #213 ) ;
#181 = AXIS2_PLACEMENT_3D ( 'NONE', #209, #206, #177 ) ;
#182 = CC_DESIGN_PERSON_AND_ORGANIZATION_ASSIGNMENT ( #216, #126, ( #108 ) ) ;
#183 = PERSON_AND_ORGANIZATION_ROLE ( 'design_owner' ) ;
#184 = EDGE_LOOP ( 'NONE', ( #113 ) ) ;
#185 = CC_DESIGN_DATE_AND_TIME_ASSIGNMENT ( #148, #217, ( #112 ) ) ;
#186 = EDGE_LOOP ( 'NONE', ( #219 ) ) ;
#187 = APPROVAL ( #133, 'UNSPECIFIED' ) ;
#188 = CONICAL_SURFACE ( 'NONE', #61, 2.578999999999999737, 0.5235987755982930425 ) ;
#189 = DIRECTION ( 'NONE',  ( -3.491481338843133355E-15, -5.093376068748963104E-16, -1.000000000000000000 ) ) ;
#190 = DIRECTION ( 'NONE',  ( 3.491481338843133355E-15, 5.093376068748963104E-16, 1.000000000000000000 ) ) ;
#191 = CARTESIAN_POINT ( 'NONE',  ( 0.0000000000000000000, 0.0000000000000000000, 0.0000000000000000000 ) ) ;
#192 = DIRECTION ( 'NONE',  ( 0.0000000000000000000, 1.000000000000000000, 0.0000000000000000000 ) ) ;
#193 =( NAMED_UNIT ( * ) SI_UNIT ( $, .STERADIAN. ) SOLID_ANGLE_UNIT ( ) );
#194 = AXIS2_PLACEMENT_3D ( 'NONE', #229, #62, #207 ) ;
#195 = CIRCLE ( 'NONE', #136, 2.348059892324148024 ) ;
#196 = CALENDAR_DATE ( 2021, 26, 11 ) ;
#197 = PERSON_AND_ORGANIZATION_ROLE ( 'classification_officer' ) ;
#198 = EDGE_LOOP ( 'NONE', ( #35 ) ) ;
#199 =( GEOMETRIC_REPRESENTATION_CONTEXT ( 3 ) GLOBAL_UNCERTAINTY_ASSIGNED_CONTEXT ( ( #92 ) ) GLOBAL_UNIT_ASSIGNED_CONTEXT ( ( #234, #67, #193 ) ) REPRESENTATION_CONTEXT ( 'NONE', 'WORKASPACE' ) );
#200 = SECURITY_CLASSIFICATION_LEVEL ( 'unclassified' ) ;
#201 = EDGE_LOOP ( 'NONE', ( #17 ) ) ;
#202 = EDGE_LOOP ( 'NONE', ( #222 ) ) ;
#203 = CARTESIAN_POINT ( 'NONE',  ( 0.0000000000000000000, 0.0000000000000000000, 0.0000000000000000000 ) ) ;
#204 = DIRECTION ( 'NONE',  ( -3.491481338843133355E-15, 9.031770143711729009E-17, -1.000000000000000000 ) ) ;
#205 = FACE_OUTER_BOUND ( 'NONE', #110, .T. ) ;
#206 = DIRECTION ( 'NONE',  ( 3.491481338843133355E-15, -9.031770143711729009E-17, 1.000000000000000000 ) ) ;
#207 = DIRECTION ( 'NONE',  ( 0.0000000000000000000, 1.000000000000000000, 0.0000000000000000000 ) ) ;
#208 = CARTESIAN_POINT ( 'NONE',  ( 2.793185071074506684E-13, 1.599999999999987876, 80.00000000000000000 ) ) ;
#209 = CARTESIAN_POINT ( 'NONE',  ( 2.793185071074506684E-13, -7.225416114969383207E-15, 80.00000000000000000 ) ) ;
#210 = APPROVAL ( #147, 'UNSPECIFIED' ) ;
#211 = DIRECTION ( 'NONE',  ( 0.0000000000000000000, 0.0000000000000000000, 1.000000000000000000 ) ) ;
#212 = LOCAL_TIME ( 11, 3, 38.00000000000000000, #16 ) ;
#213 = APPLICATION_CONTEXT ( 'configuration controlled 3d designs of mechanical parts and assemblies' ) ;
#214 = AXIS2_PLACEMENT_3D ( 'NONE', #191, #226, #139 ) ;
#215 = APPROVAL_ROLE ( '' ) ;
#216 = PERSON_AND_ORGANIZATION ( #39, #98 ) ;
#217 = DATE_TIME_ROLE ( 'creation_date' ) ;
#218 = AXIS2_PLACEMENT_3D ( 'NONE', #156, #83, #91 ) ;
#219 = ORIENTED_EDGE ( 'NONE', *, *, #138, .T. ) ;
#220 = APPROVAL_DATE_TIME ( #56, #187 ) ;
#221 = EDGE_CURVE ( 'NONE', #30, #30, #129, .T. ) ;
#222 = ORIENTED_EDGE ( 'NONE', *, *, #141, .F. ) ;
#223 = DIRECTION ( 'NONE',  ( -3.491481338843133355E-15, -5.093376068748963104E-16, -1.000000000000000000 ) ) ;
#224 = FACE_OUTER_BOUND ( 'NONE', #36, .T. ) ;
#225 = CONICAL_SURFACE ( 'NONE', #32, 1.999999999999995337, 0.7853981633974516097 ) ;
#226 = DIRECTION ( 'NONE',  ( -3.491481338843133355E-15, 9.031770143711729009E-17, -1.000000000000000000 ) ) ;
#227 = LOCAL_TIME ( 11, 3, 38.00000000000000000, #53 ) ;
#228 = FACE_OUTER_BOUND ( 'NONE', #201, .T. ) ;
#229 = CARTESIAN_POINT ( 'NONE',  ( 2.779219145719134403E-13, -7.189289034394536528E-15, 79.60000000000000853 ) ) ;
#230 = CC_DESIGN_DATE_AND_TIME_ASSIGNMENT ( #130, #151, ( #18 ) ) ;
#231 = CARTESIAN_POINT ( 'NONE',  ( 1.396592535537253145E-15, 2.578999999999997961, 0.3999999999999999667 ) ) ;
#232 = AXIS2_PLACEMENT_3D ( 'NONE', #11, #135, #179 ) ;
#233 = PRODUCT_DEFINITION_SHAPE ( 'NONE', 'NONE',  #112 ) ;
#234 =( LENGTH_UNIT ( ) NAMED_UNIT ( * ) SI_UNIT ( .MILLI., .METRE. ) );
#235 = CARTESIAN_POINT ( 'NONE',  ( 2.779219145719134403E-13, 1.999999999999988010, 79.60000000000000853 ) ) ;
#236 = PERSON_AND_ORGANIZATION ( #39, #98 ) ;
#237 = COORDINATED_UNIVERSAL_TIME_OFFSET ( 1, 0, .AHEAD. ) ;
#238 = CARTESIAN_POINT ( 'NONE',  ( 4.885231259955591070E-14, 1.999999999999990452, 13.99185842870425311 ) ) ;
#239 = COORDINATED_UNIVERSAL_TIME_OFFSET ( 1, 0, .AHEAD. ) ;
#240 = AXIS2_PLACEMENT_3D ( 'NONE', #6, #190, #47 ) ;
#241 = EDGE_LOOP ( 'NONE', ( #94 ) ) ;
#242 = EDGE_CURVE ( 'NONE', #28, #28, #10, .T. ) ;
#243 = CALENDAR_DATE ( 2021, 26, 11 ) ;
ENDSEC;
END-ISO-10303-21;
