ISO-10303-21;
HEADER;
FILE_DESCRIPTION (( 'STEP AP203' ),
    '1' );
FILE_NAME ('321418.step',
    '2021-11-26T10:03:37',
    ( '' ),
    ( '' ),
    'SwSTEP 2.0',
    'SolidWorks 2019',
    '' );
FILE_SCHEMA (( 'CONFIG_CONTROL_DESIGN' ));
ENDSEC;

DATA;
#1 = DIRECTION ( 'NONE',  ( 3.491481338843133355E-15, 5.088350438821577748E-16, 1.000000000000000000 ) ) ;
#2 = CARTESIAN_POINT ( 'NONE',  ( 4.162652229186489045E-30, 6.066489046182561362E-31, 1.192230983129281709E-15 ) ) ;
#3 = ADVANCED_FACE ( 'NONE', ( #241 ), #40, .T. ) ;
#4 = PERSON_AND_ORGANIZATION ( #36, #115 ) ;
#5 = AXIS2_PLACEMENT_3D ( 'NONE', #160, #222, #184 ) ;
#6 = DATE_AND_TIME ( #235, #146 ) ;
#7 = APPROVAL ( #229, 'UNSPECIFIED' ) ;
#8 = AXIS2_PLACEMENT_3D ( 'NONE', #91, #71, #119 ) ;
#9 = EDGE_LOOP ( 'NONE', ( #31 ) ) ;
#10 = ADVANCED_FACE ( 'NONE', ( #220, #102 ), #193, .T. ) ;
#11 = EDGE_CURVE ( 'NONE', #223, #223, #167, .T. ) ;
#12 = DATE_TIME_ROLE ( 'creation_date' ) ;
#13 = EDGE_LOOP ( 'NONE', ( #238 ) ) ;
#14 = CONICAL_SURFACE ( 'NONE', #47, 2.343059892324148130, 0.5235987755982978165 ) ;
#15 = DIRECTION ( 'NONE',  ( 0.0000000000000000000, 1.000000000000000000, 0.0000000000000000000 ) ) ;
#16 = DIRECTION ( 'NONE',  ( -3.491481338843133355E-15, 9.031770143711729009E-17, -1.000000000000000000 ) ) ;
#17 = CARTESIAN_POINT ( 'NONE',  ( 2.793185071074506684E-13, -7.225416114969383207E-15, 80.00000000000000000 ) ) ;
#18 = DIRECTION ( 'NONE',  ( 3.491481338843133355E-15, 5.088350438821577748E-16, 1.000000000000000000 ) ) ;
#19 = CC_DESIGN_DATE_AND_TIME_ASSIGNMENT ( #83, #136, ( #97 ) ) ;
#20 = PERSON_AND_ORGANIZATION ( #36, #115 ) ;
#21 = DIRECTION ( 'NONE',  ( 1.000000000000000000, 0.0000000000000000000, 0.0000000000000000000 ) ) ;
#22 = PRODUCT ( '321418', '321418', '', ( #147 ) ) ;
#23 = CIRCLE ( 'NONE', #171, 2.343059892324148130 ) ;
#24 = VERTEX_POINT ( 'NONE', #41 ) ;
#25 = VERTEX_POINT ( 'NONE', #208 ) ;
#26 = APPROVAL_PERSON_ORGANIZATION ( #156, #7, #112 ) ;
#27 = PERSON_AND_ORGANIZATION ( #36, #115 ) ;
#28 = EDGE_LOOP ( 'NONE', ( #194 ) ) ;
#29 = EDGE_CURVE ( 'NONE', #204, #204, #196, .T. ) ;
#30 = COORDINATED_UNIVERSAL_TIME_OFFSET ( 1, 0, .AHEAD. ) ;
#31 = ORIENTED_EDGE ( 'NONE', *, *, #139, .F. ) ;
#32 = ORIENTED_EDGE ( 'NONE', *, *, #11, .T. ) ;
#33 = PLANE ( 'NONE',  #62 ) ;
#34 = APPROVAL ( #82, 'UNSPECIFIED' ) ;
#35 = DIRECTION ( 'NONE',  ( 1.776588060263980868E-30, -1.000000000000000000, 5.088350438821577748E-16 ) ) ;
#36 = PERSON ( 'UNSPECIFIED', 'UNSPECIFIED', 'UNSPECIFIED', ('UNSPECIFIED'), ('UNSPECIFIED'), ('UNSPECIFIED') ) ;
#37 = CARTESIAN_POINT ( 'NONE',  ( 2.793185071074506684E-13, -7.225416114969383207E-15, 80.00000000000000000 ) ) ;
#38 = DIRECTION ( 'NONE',  ( 0.0000000000000000000, 1.000000000000000000, 0.0000000000000000000 ) ) ;
#39 = CC_DESIGN_PERSON_AND_ORGANIZATION_ASSIGNMENT ( #114, #151, ( #105 ) ) ;
#40 = PLANE ( 'NONE',  #176 ) ;
#41 = CARTESIAN_POINT ( 'NONE',  ( 4.538109175590929913E-14, 2.573999999999998067, 12.99766126515969233 ) ) ;
#42 = DATE_AND_TIME ( #165, #182 ) ;
#43 = CARTESIAN_POINT ( 'NONE',  ( 0.0000000000000000000, 0.0000000000000000000, 0.0000000000000000000 ) ) ;
#44 = PERSON_AND_ORGANIZATION_ROLE ( 'creator' ) ;
#45 = PERSON_AND_ORGANIZATION ( #36, #115 ) ;
#46 = ORIENTED_EDGE ( 'NONE', *, *, #139, .T. ) ;
#47 = AXIS2_PLACEMENT_3D ( 'NONE', #2, #1, #243 ) ;
#48 = CALENDAR_DATE ( 2021, 26, 11 ) ;
#49 = CARTESIAN_POINT ( 'NONE',  ( 2.779219145719134403E-13, -7.189289034394536528E-15, 79.60000000000000853 ) ) ;
#50 = CC_DESIGN_PERSON_AND_ORGANIZATION_ASSIGNMENT ( #27, #132, ( #97 ) ) ;
#51 = DIRECTION ( 'NONE',  ( 3.153425691349006731E-31, 1.000000000000000000, 9.031770143711729009E-17 ) ) ;
#52 = CIRCLE ( 'NONE', #150, 1.999999999999991784 ) ;
#53 = DIRECTION ( 'NONE',  ( 0.0000000000000000000, 1.000000000000000000, 0.0000000000000000000 ) ) ;
#54 = FACE_OUTER_BOUND ( 'NONE', #9, .T. ) ;
#55 = FACE_BOUND ( 'NONE', #141, .T. ) ;
#56 =( LENGTH_UNIT ( ) NAMED_UNIT ( * ) SI_UNIT ( .MILLI., .METRE. ) );
#57 =( NAMED_UNIT ( * ) PLANE_ANGLE_UNIT ( ) SI_UNIT ( $, .RADIAN. ) );
#58 = FACE_BOUND ( 'NONE', #84, .T. ) ;
#59 = CARTESIAN_POINT ( 'NONE',  ( 4.538109175590929913E-14, 2.573999999999998067, 12.99766126515969233 ) ) ;
#60 = ORIENTED_EDGE ( 'NONE', *, *, #92, .F. ) ;
#61 = COORDINATED_UNIVERSAL_TIME_OFFSET ( 1, 0, .AHEAD. ) ;
#62 = AXIS2_PLACEMENT_3D ( 'NONE', #217, #104, #121 ) ;
#63 = CALENDAR_DATE ( 2021, 26, 11 ) ;
#64 = DATE_AND_TIME ( #211, #66 ) ;
#65 = ORIENTED_EDGE ( 'NONE', *, *, #29, .F. ) ;
#66 = LOCAL_TIME ( 11, 3, 37.00000000000000000, #30 ) ;
#67 = APPLICATION_CONTEXT ( 'configuration controlled 3d designs of mechanical parts and assemblies' ) ;
#68 = MANIFOLD_SOLID_BREP ( 'Corps-Déplacer/Copier1[2]', #231 ) ;
#69 = ORIENTED_EDGE ( 'NONE', *, *, #29, .T. ) ;
#70 = DIRECTION ( 'NONE',  ( -3.491481338843133355E-15, 9.031770143711729009E-17, -1.000000000000000000 ) ) ;
#71 = DIRECTION ( 'NONE',  ( -3.491481338843133355E-15, -5.088350438821577748E-16, -1.000000000000000000 ) ) ;
#72 = DIRECTION ( 'NONE',  ( -3.491481338843133355E-15, -5.088350438821577748E-16, -1.000000000000000000 ) ) ;
#73 = PLANE ( 'NONE',  #99 ) ;
#74 = VERTEX_POINT ( 'NONE', #207 ) ;
#75 = LOCAL_TIME ( 11, 3, 37.00000000000000000, #232 ) ;
#76 = DIRECTION ( 'NONE',  ( 0.0000000000000000000, 0.0000000000000000000, 1.000000000000000000 ) ) ;
#77 = PRODUCT_DEFINITION ( 'UNKNOWN', '', #105, #175 ) ;
#78 = ADVANCED_FACE ( 'NONE', ( #55, #54 ), #81, .T. ) ;
#79 = PERSON_AND_ORGANIZATION_ROLE ( 'design_owner' ) ;
#80 = DIRECTION ( 'NONE',  ( -3.491481338843133355E-15, -5.088350438821577748E-16, -1.000000000000000000 ) ) ;
#81 = CONICAL_SURFACE ( 'NONE', #90, 1.999999999999995337, 0.7853981633974516097 ) ;
#82 = APPROVAL_STATUS ( 'not_yet_approved' ) ;
#83 = DATE_AND_TIME ( #48, #75 ) ;
#84 = EDGE_LOOP ( 'NONE', ( #60 ) ) ;
#85 = CARTESIAN_POINT ( 'NONE',  ( 2.779219145719134403E-13, -7.189289034394536528E-15, 79.60000000000000853 ) ) ;
#86 = CC_DESIGN_SECURITY_CLASSIFICATION ( #97, ( #105 ) ) ;
#87 = CARTESIAN_POINT ( 'NONE',  ( 4.885231259955591070E-14, -1.263712492114123682E-15, 13.99185842870425311 ) ) ;
#88 = ORIENTED_EDGE ( 'NONE', *, *, #11, .F. ) ;
#89 = CARTESIAN_POINT ( 'NONE',  ( 4.538109175590929913E-14, -1.173918889527477204E-15, 12.99766126515969233 ) ) ;
#90 = AXIS2_PLACEMENT_3D ( 'NONE', #85, #16, #53 ) ;
#91 = CARTESIAN_POINT ( 'NONE',  ( 1.396592535537257681E-15, 2.035340175528637311E-16, 0.4000000000000012434 ) ) ;
#92 = EDGE_CURVE ( 'NONE', #124, #124, #23, .T. ) ;
#93 = APPROVAL_STATUS ( 'not_yet_approved' ) ;
#94 = FACE_OUTER_BOUND ( 'NONE', #13, .T. ) ;
#95 = APPROVAL_DATE_TIME ( #42, #123 ) ;
#96 = EDGE_CURVE ( 'NONE', #74, #74, #236, .T. ) ;
#97 = SECURITY_CLASSIFICATION ( '', '', #190 ) ;
#98 = ADVANCED_FACE ( 'NONE', ( #195 ), #33, .T. ) ;
#99 = AXIS2_PLACEMENT_3D ( 'NONE', #17, #163, #218 ) ;
#100 = ORIENTED_EDGE ( 'NONE', *, *, #142, .F. ) ;
#101 = DIRECTION ( 'NONE',  ( 0.0000000000000000000, 1.000000000000000000, 0.0000000000000000000 ) ) ;
#102 = FACE_OUTER_BOUND ( 'NONE', #192, .T. ) ;
#103 = CARTESIAN_POINT ( 'NONE',  ( 4.538109175590930544E-14, 6.613665540222954237E-15, 12.99766126515969411 ) ) ;
#104 = DIRECTION ( 'NONE',  ( -3.491481338843133355E-15, -5.088350438821577748E-16, -1.000000000000000000 ) ) ;
#105 = PRODUCT_DEFINITION_FORMATION_WITH_SPECIFIED_SOURCE ( 'ANY', '', #22, .NOT_KNOWN. ) ;
#106 = EDGE_LOOP ( 'NONE', ( #191 ) ) ;
#107 =( NAMED_UNIT ( * ) SI_UNIT ( $, .STERADIAN. ) SOLID_ANGLE_UNIT ( ) );
#108 = AXIS2_PLACEMENT_3D ( 'NONE', #43, #80, #186 ) ;
#109 = CYLINDRICAL_SURFACE ( 'NONE', #108, 2.573999999999994515 ) ;
#110 = APPLICATION_PROTOCOL_DEFINITION ( 'international standard', 'config_control_design', 1994, #149 ) ;
#111 = AXIS2_PLACEMENT_3D ( 'NONE', #130, #76, #21 ) ;
#112 = APPROVAL_ROLE ( '' ) ;
#113 = ADVANCED_FACE ( 'NONE', ( #237 ), #73, .T. ) ;
#114 = PERSON_AND_ORGANIZATION ( #36, #115 ) ;
#115 = ORGANIZATION ( 'UNSPECIFIED', 'UNSPECIFIED', '' ) ;
#116 = SHAPE_DEFINITION_REPRESENTATION ( #185, #126 ) ;
#117 = DIRECTION ( 'NONE',  ( -3.491481338843133355E-15, 9.031770143711729009E-17, -1.000000000000000000 ) ) ;
#118 = FACE_OUTER_BOUND ( 'NONE', #212, .T. ) ;
#119 = DIRECTION ( 'NONE',  ( -1.795738875885536129E-30, 1.000000000000000000, -5.054555582683008673E-16 ) ) ;
#120 = DIRECTION ( 'NONE',  ( -3.491481338843133355E-15, 9.031770143711729009E-17, -1.000000000000000000 ) ) ;
#121 = DIRECTION ( 'NONE',  ( -1.776588060263980868E-30, 1.000000000000000000, -5.088350438821577748E-16 ) ) ;
#122 = CC_DESIGN_APPROVAL ( #123, ( #77 ) ) ;
#123 = APPROVAL ( #93, 'UNSPECIFIED' ) ;
#124 = VERTEX_POINT ( 'NONE', #145 ) ;
#125 = PERSON_AND_ORGANIZATION ( #36, #115 ) ;
#126 = ADVANCED_BREP_SHAPE_REPRESENTATION ( '321418', ( #225, #68, #111 ), #140 ) ;
#127 = PLANE ( 'NONE',  #228 ) ;
#128 = CLOSED_SHELL ( 'NONE', ( #113, #78, #179, #10, #213 ) ) ;
#129 = CARTESIAN_POINT ( 'NONE',  ( 4.538109175590930544E-14, 2.573999999999998067, 12.99766126515969411 ) ) ;
#130 = CARTESIAN_POINT ( 'NONE',  ( 0.0000000000000000000, 0.0000000000000000000, 0.0000000000000000000 ) ) ;
#131 = DATE_AND_TIME ( #63, #214 ) ;
#132 = PERSON_AND_ORGANIZATION_ROLE ( 'classification_officer' ) ;
#133 = COORDINATED_UNIVERSAL_TIME_OFFSET ( 1, 0, .AHEAD. ) ;
#134 = CC_DESIGN_PERSON_AND_ORGANIZATION_ASSIGNMENT ( #125, #79, ( #22 ) ) ;
#135 = AXIS2_PLACEMENT_3D ( 'NONE', #49, #117, #101 ) ;
#136 = DATE_TIME_ROLE ( 'classification_date' ) ;
#137 = DIRECTION ( 'NONE',  ( -1.776588060263980517E-30, 1.000000000000000000, -5.088350438821577748E-16 ) ) ;
#138 = DIRECTION ( 'NONE',  ( 0.0000000000000000000, 1.000000000000000000, 0.0000000000000000000 ) ) ;
#139 = EDGE_CURVE ( 'NONE', #169, #169, #153, .T. ) ;
#140 =( GEOMETRIC_REPRESENTATION_CONTEXT ( 3 ) GLOBAL_UNCERTAINTY_ASSIGNED_CONTEXT ( ( #158 ) ) GLOBAL_UNIT_ASSIGNED_CONTEXT ( ( #56, #57, #107 ) ) REPRESENTATION_CONTEXT ( 'NONE', 'WORKASPACE' ) );
#141 = EDGE_LOOP ( 'NONE', ( #32 ) ) ;
#142 = EDGE_CURVE ( 'NONE', #24, #24, #240, .T. ) ;
#143 = DIRECTION ( 'NONE',  ( -3.491481338843133355E-15, 9.031770143711729009E-17, -1.000000000000000000 ) ) ;
#144 = CYLINDRICAL_SURFACE ( 'NONE', #161, 1.999999999999993561 ) ;
#145 = CARTESIAN_POINT ( 'NONE',  ( -6.842277657836020854E-46, 2.343059892324148130, 0.0000000000000000000 ) ) ;
#146 = LOCAL_TIME ( 11, 3, 37.00000000000000000, #133 ) ;
#147 = MECHANICAL_CONTEXT ( 'NONE', #67, 'mechanical' ) ;
#148 = APPROVAL_ROLE ( '' ) ;
#149 = APPLICATION_CONTEXT ( 'configuration controlled 3d designs of mechanical parts and assemblies' ) ;
#150 = AXIS2_PLACEMENT_3D ( 'NONE', #87, #143, #15 ) ;
#151 = PERSON_AND_ORGANIZATION_ROLE ( 'design_supplier' ) ;
#152 = ORIENTED_EDGE ( 'NONE', *, *, #164, .F. ) ;
#153 = CIRCLE ( 'NONE', #135, 1.999999999999995337 ) ;
#154 = EDGE_LOOP ( 'NONE', ( #88 ) ) ;
#155 = APPROVAL_DATE_TIME ( #64, #34 ) ;
#156 = PERSON_AND_ORGANIZATION ( #36, #115 ) ;
#157 = AXIS2_PLACEMENT_3D ( 'NONE', #178, #177, #38 ) ;
#158 = UNCERTAINTY_MEASURE_WITH_UNIT (LENGTH_MEASURE( 1.000000000000000082E-05 ), #56, 'distance_accuracy_value', 'NONE');
#159 = CARTESIAN_POINT ( 'NONE',  ( 0.0000000000000000000, 0.0000000000000000000, 0.0000000000000000000 ) ) ;
#160 = CARTESIAN_POINT ( 'NONE',  ( 4.538109175590930544E-14, 6.613665540222955026E-15, 12.99766126515969411 ) ) ;
#161 = AXIS2_PLACEMENT_3D ( 'NONE', #159, #70, #51 ) ;
#162 = DIRECTION ( 'NONE',  ( -3.491481338843133355E-15, 9.031770143711729009E-17, -1.000000000000000000 ) ) ;
#163 = DIRECTION ( 'NONE',  ( 3.491481338843133355E-15, -9.031770143711729009E-17, 1.000000000000000000 ) ) ;
#164 = EDGE_CURVE ( 'NONE', #25, #25, #52, .T. ) ;
#165 = CALENDAR_DATE ( 2021, 26, 11 ) ;
#166 = DIRECTION ( 'NONE',  ( 3.153425691349006731E-31, 1.000000000000000000, 9.031770143711729009E-17 ) ) ;
#167 = CIRCLE ( 'NONE', #205, 1.599999999999994982 ) ;
#168 = DIRECTION ( 'NONE',  ( -3.491481338843133355E-15, 9.031770143711729009E-17, -1.000000000000000000 ) ) ;
#169 = VERTEX_POINT ( 'NONE', #203 ) ;
#170 = APPROVAL_PERSON_ORGANIZATION ( #172, #34, #174 ) ;
#171 = AXIS2_PLACEMENT_3D ( 'NONE', #180, #72, #137 ) ;
#172 = PERSON_AND_ORGANIZATION ( #36, #115 ) ;
#173 = EDGE_LOOP ( 'NONE', ( #230 ) ) ;
#174 = APPROVAL_ROLE ( '' ) ;
#175 = DESIGN_CONTEXT ( 'detailed design', #149, 'design' ) ;
#176 = AXIS2_PLACEMENT_3D ( 'NONE', #103, #18, #35 ) ;
#177 = DIRECTION ( 'NONE',  ( -3.491481338843133355E-15, 9.031770143711729009E-17, -1.000000000000000000 ) ) ;
#178 = CARTESIAN_POINT ( 'NONE',  ( 4.538109175590929913E-14, -1.173918889527477204E-15, 12.99766126515969233 ) ) ;
#179 = ADVANCED_FACE ( 'NONE', ( #221, #242 ), #144, .T. ) ;
#180 = CARTESIAN_POINT ( 'NONE',  ( 4.162652229186489045E-30, 6.066489046182561362E-31, 1.192230983129281709E-15 ) ) ;
#181 = CC_DESIGN_PERSON_AND_ORGANIZATION_ASSIGNMENT ( #45, #233, ( #105 ) ) ;
#182 = LOCAL_TIME ( 11, 3, 37.00000000000000000, #224 ) ;
#183 = EDGE_LOOP ( 'NONE', ( #152 ) ) ;
#184 = DIRECTION ( 'NONE',  ( -2.394318501180720211E-30, 1.000000000000000000, -6.739407443577360018E-16 ) ) ;
#185 = PRODUCT_DEFINITION_SHAPE ( 'NONE', 'NONE',  #77 ) ;
#186 = DIRECTION ( 'NONE',  ( -1.776588060263980868E-30, 1.000000000000000000, -5.088350438821578734E-16 ) ) ;
#187 = APPLICATION_PROTOCOL_DEFINITION ( 'international standard', 'config_control_design', 1994, #67 ) ;
#188 = CARTESIAN_POINT ( 'NONE',  ( 2.793185071074506684E-13, 1.599999999999987876, 80.00000000000000000 ) ) ;
#189 = CC_DESIGN_APPROVAL ( #7, ( #97 ) ) ;
#190 = SECURITY_CLASSIFICATION_LEVEL ( 'unclassified' ) ;
#191 = ORIENTED_EDGE ( 'NONE', *, *, #92, .T. ) ;
#192 = EDGE_LOOP ( 'NONE', ( #100 ) ) ;
#193 = CONICAL_SURFACE ( 'NONE', #157, 2.573999999999999400, 0.5235987755982931535 ) ;
#194 = ORIENTED_EDGE ( 'NONE', *, *, #96, .F. ) ;
#195 = FACE_OUTER_BOUND ( 'NONE', #106, .T. ) ;
#196 = CIRCLE ( 'NONE', #5, 2.573999999999991850 ) ;
#197 = FACE_OUTER_BOUND ( 'NONE', #28, .T. ) ;
#198 = EDGE_LOOP ( 'NONE', ( #46 ) ) ;
#199 = CC_DESIGN_DATE_AND_TIME_ASSIGNMENT ( #131, #12, ( #77 ) ) ;
#200 = EDGE_LOOP ( 'NONE', ( #239 ) ) ;
#201 = CC_DESIGN_APPROVAL ( #34, ( #105 ) ) ;
#202 = DIRECTION ( 'NONE',  ( 0.0000000000000000000, 1.000000000000000000, 0.0000000000000000000 ) ) ;
#203 = CARTESIAN_POINT ( 'NONE',  ( 2.779219145719134403E-13, 1.999999999999988010, 79.60000000000000853 ) ) ;
#204 = VERTEX_POINT ( 'NONE', #59 ) ;
#205 = AXIS2_PLACEMENT_3D ( 'NONE', #37, #120, #138 ) ;
#206 = ADVANCED_FACE ( 'NONE', ( #118, #197 ), #109, .T. ) ;
#207 = CARTESIAN_POINT ( 'NONE',  ( 1.396592535537253145E-15, 2.573999999999997623, 0.3999999999999999667 ) ) ;
#208 = CARTESIAN_POINT ( 'NONE',  ( 4.885231259955591070E-14, 1.999999999999990452, 13.99185842870425311 ) ) ;
#209 = ADVANCED_FACE ( 'NONE', ( #227, #58 ), #14, .T. ) ;
#210 = APPROVAL_PERSON_ORGANIZATION ( #20, #123, #148 ) ;
#211 = CALENDAR_DATE ( 2021, 26, 11 ) ;
#212 = EDGE_LOOP ( 'NONE', ( #69 ) ) ;
#213 = ADVANCED_FACE ( 'NONE', ( #94 ), #127, .T. ) ;
#214 = LOCAL_TIME ( 11, 3, 37.00000000000000000, #61 ) ;
#215 = APPROVAL_DATE_TIME ( #6, #7 ) ;
#216 = PRODUCT_RELATED_PRODUCT_CATEGORY ( 'detail', '', ( #22 ) ) ;
#217 = CARTESIAN_POINT ( 'NONE',  ( -2.081326114593244523E-30, 2.343059892324148130, -5.961154915646408546E-16 ) ) ;
#218 = DIRECTION ( 'NONE',  ( -3.153425691349006731E-31, -1.000000000000000000, -9.031770143711729009E-17 ) ) ;
#219 = AXIS2_PLACEMENT_3D ( 'NONE', #89, #162, #202 ) ;
#220 = FACE_BOUND ( 'NONE', #200, .T. ) ;
#221 = FACE_OUTER_BOUND ( 'NONE', #198, .T. ) ;
#222 = DIRECTION ( 'NONE',  ( -3.491481338843133355E-15, -5.088350438821577748E-16, -1.000000000000000000 ) ) ;
#223 = VERTEX_POINT ( 'NONE', #188 ) ;
#224 = COORDINATED_UNIVERSAL_TIME_OFFSET ( 1, 0, .AHEAD. ) ;
#225 = MANIFOLD_SOLID_BREP ( 'Corps-Déplacer/Copier1[1]', #128 ) ;
#226 = CC_DESIGN_PERSON_AND_ORGANIZATION_ASSIGNMENT ( #4, #44, ( #77 ) ) ;
#227 = FACE_OUTER_BOUND ( 'NONE', #173, .T. ) ;
#228 = AXIS2_PLACEMENT_3D ( 'NONE', #129, #168, #166 ) ;
#229 = APPROVAL_STATUS ( 'not_yet_approved' ) ;
#230 = ORIENTED_EDGE ( 'NONE', *, *, #96, .T. ) ;
#231 = CLOSED_SHELL ( 'NONE', ( #3, #206, #209, #98 ) ) ;
#232 = COORDINATED_UNIVERSAL_TIME_OFFSET ( 1, 0, .AHEAD. ) ;
#233 = PERSON_AND_ORGANIZATION_ROLE ( 'creator' ) ;
#234 = EDGE_LOOP ( 'NONE', ( #65 ) ) ;
#235 = CALENDAR_DATE ( 2021, 26, 11 ) ;
#236 = CIRCLE ( 'NONE', #8, 2.573999999999997623 ) ;
#237 = FACE_OUTER_BOUND ( 'NONE', #154, .T. ) ;
#238 = ORIENTED_EDGE ( 'NONE', *, *, #142, .T. ) ;
#239 = ORIENTED_EDGE ( 'NONE', *, *, #164, .T. ) ;
#240 = CIRCLE ( 'NONE', #219, 2.573999999999999400 ) ;
#241 = FACE_OUTER_BOUND ( 'NONE', #234, .T. ) ;
#242 = FACE_OUTER_BOUND ( 'NONE', #183, .T. ) ;
#243 = DIRECTION ( 'NONE',  ( 1.776588060263980868E-30, -1.000000000000000000, 5.088350438821577748E-16 ) ) ;
ENDSEC;
END-ISO-10303-21;
