ISO-10303-21;
HEADER;
FILE_DESCRIPTION (( 'STEP AP203' ),
    '1' );
FILE_NAME ('321417.step',
    '2021-11-26T10:03:36',
    ( '' ),
    ( '' ),
    'SwSTEP 2.0',
    'SolidWorks 2019',
    '' );
FILE_SCHEMA (( 'CONFIG_CONTROL_DESIGN' ));
ENDSEC;

DATA;
#1 = EDGE_CURVE ( 'NONE', #124, #124, #100, .T. ) ;
#2 = DIRECTION ( 'NONE',  ( 0.0000000000000000000, 1.000000000000000000, 0.0000000000000000000 ) ) ;
#3 = CIRCLE ( 'NONE', #190, 1.999999999999995337 ) ;
#4 = CYLINDRICAL_SURFACE ( 'NONE', #196, 1.999999999999993561 ) ;
#5 = APPROVAL ( #236, 'UNSPECIFIED' ) ;
#6 = CARTESIAN_POINT ( 'NONE',  ( 2.779219145719134403E-13, -7.189289034394536528E-15, 79.60000000000000853 ) ) ;
#7 = CARTESIAN_POINT ( 'NONE',  ( 4.885231259955591070E-14, 1.999999999999990452, 13.99185842870425311 ) ) ;
#8 = CARTESIAN_POINT ( 'NONE',  ( 2.793185071074506684E-13, 1.599999999999987876, 80.00000000000000000 ) ) ;
#9 = CC_DESIGN_DATE_AND_TIME_ASSIGNMENT ( #96, #91, ( #218 ) ) ;
#10 = PERSON_AND_ORGANIZATION ( #41, #149 ) ;
#11 = EDGE_LOOP ( 'NONE', ( #171 ) ) ;
#12 = PERSON_AND_ORGANIZATION_ROLE ( 'creator' ) ;
#13 = PERSON_AND_ORGANIZATION_ROLE ( 'design_owner' ) ;
#14 = EDGE_LOOP ( 'NONE', ( #221 ) ) ;
#15 = CIRCLE ( 'NONE', #33, 2.568999999999999506 ) ;
#16 = LOCAL_TIME ( 11, 3, 36.00000000000000000, #106 ) ;
#17 = APPROVAL_STATUS ( 'not_yet_approved' ) ;
#18 = ADVANCED_FACE ( 'NONE', ( #223 ), #131, .T. ) ;
#19 = DIRECTION ( 'NONE',  ( 3.491481338843133355E-15, 5.083331501521597745E-16, 1.000000000000000000 ) ) ;
#20 = DIRECTION ( 'NONE',  ( 3.153425691349006731E-31, 1.000000000000000000, 9.031770143711729009E-17 ) ) ;
#21 = CARTESIAN_POINT ( 'NONE',  ( 4.541132887127205524E-14, 2.568999999999998174, 13.00632151919753277 ) ) ;
#22 = CARTESIAN_POINT ( 'NONE',  ( 2.793185071074506684E-13, -7.225416114969383207E-15, 80.00000000000000000 ) ) ;
#23 = DIRECTION ( 'NONE',  ( -3.491481338843133355E-15, 9.031770143711729009E-17, -1.000000000000000000 ) ) ;
#24 = CARTESIAN_POINT ( 'NONE',  ( 4.149672183571739781E-30, 6.041607353607530017E-31, 1.188513350309554194E-15 ) ) ;
#25 = ORIENTED_EDGE ( 'NONE', *, *, #165, .F. ) ;
#26 = PERSON_AND_ORGANIZATION_ROLE ( 'design_supplier' ) ;
#27 = DIRECTION ( 'NONE',  ( -1.774835707671610440E-30, 1.000000000000000000, -5.083331501521597745E-16 ) ) ;
#28 = PERSON_AND_ORGANIZATION ( #41, #149 ) ;
#29 = DIRECTION ( 'NONE',  ( 0.0000000000000000000, 1.000000000000000000, 0.0000000000000000000 ) ) ;
#30 = ADVANCED_FACE ( 'NONE', ( #210 ), #64, .T. ) ;
#31 = DATE_AND_TIME ( #111, #169 ) ;
#32 = EDGE_LOOP ( 'NONE', ( #25 ) ) ;
#33 = AXIS2_PLACEMENT_3D ( 'NONE', #197, #226, #127 ) ;
#34 = LOCAL_TIME ( 11, 3, 36.00000000000000000, #150 ) ;
#35 = CALENDAR_DATE ( 2021, 26, 11 ) ;
#36 = ORIENTED_EDGE ( 'NONE', *, *, #50, .F. ) ;
#37 = CC_DESIGN_PERSON_AND_ORGANIZATION_ASSIGNMENT ( #136, #13, ( #188 ) ) ;
#38 = DIRECTION ( 'NONE',  ( -1.774835707671610090E-30, 1.000000000000000000, -5.083331501521597745E-16 ) ) ;
#39 = CIRCLE ( 'NONE', #120, 2.568999999999998618 ) ;
#40 = CC_DESIGN_APPROVAL ( #5, ( #153 ) ) ;
#41 = PERSON ( 'UNSPECIFIED', 'UNSPECIFIED', 'UNSPECIFIED', ('UNSPECIFIED'), ('UNSPECIFIED'), ('UNSPECIFIED') ) ;
#42 = SHAPE_DEFINITION_REPRESENTATION ( #152, #116 ) ;
#43 = FACE_OUTER_BOUND ( 'NONE', #187, .T. ) ;
#44 = SECURITY_CLASSIFICATION ( '', '', #79 ) ;
#45 = FACE_OUTER_BOUND ( 'NONE', #32, .T. ) ;
#46 = CARTESIAN_POINT ( 'NONE',  ( 0.0000000000000000000, 0.0000000000000000000, 0.0000000000000000000 ) ) ;
#47 = AXIS2_PLACEMENT_3D ( 'NONE', #84, #19, #157 ) ;
#48 = FACE_BOUND ( 'NONE', #11, .T. ) ;
#49 = CC_DESIGN_APPROVAL ( #86, ( #218 ) ) ;
#50 = EDGE_CURVE ( 'NONE', #215, #215, #233, .T. ) ;
#51 = DIRECTION ( 'NONE',  ( 3.491481338843133355E-15, -9.031770143711729009E-17, 1.000000000000000000 ) ) ;
#52 = PERSON_AND_ORGANIZATION ( #41, #149 ) ;
#53 = MECHANICAL_CONTEXT ( 'NONE', #143, 'mechanical' ) ;
#54 = DATE_AND_TIME ( #220, #76 ) ;
#55 = EDGE_LOOP ( 'NONE', ( #182 ) ) ;
#56 = ADVANCED_FACE ( 'NONE', ( #224, #241 ), #231, .T. ) ;
#57 = APPLICATION_PROTOCOL_DEFINITION ( 'international standard', 'config_control_design', 1994, #198 ) ;
#58 = AXIS2_PLACEMENT_3D ( 'NONE', #140, #193, #142 ) ;
#59 = CARTESIAN_POINT ( 'NONE',  ( -2.074836091785869890E-30, 2.338059892324149125, -5.942566751547770969E-16 ) ) ;
#60 = CC_DESIGN_PERSON_AND_ORGANIZATION_ASSIGNMENT ( #94, #26, ( #153 ) ) ;
#61 = CARTESIAN_POINT ( 'NONE',  ( 0.0000000000000000000, 0.0000000000000000000, 0.0000000000000000000 ) ) ;
#62 = MANIFOLD_SOLID_BREP ( 'Corps-Déplacer/Copier1[1]', #73 ) ;
#63 = MANIFOLD_SOLID_BREP ( 'Corps-Déplacer/Copier1[2]', #141 ) ;
#64 = PLANE ( 'NONE',  #47 ) ;
#65 = CIRCLE ( 'NONE', #184, 1.599999999999994982 ) ;
#66 = APPROVAL_PERSON_ORGANIZATION ( #28, #118, #80 ) ;
#67 = DIRECTION ( 'NONE',  ( -2.398978521618985675E-30, 1.000000000000000000, -6.752524235020679543E-16 ) ) ;
#68 = DIRECTION ( 'NONE',  ( 0.0000000000000000000, 1.000000000000000000, 0.0000000000000000000 ) ) ;
#69 = ADVANCED_FACE ( 'NONE', ( #239, #191 ), #138, .T. ) ;
#70 = CARTESIAN_POINT ( 'NONE',  ( 2.793185071074506684E-13, -7.225416114969383207E-15, 80.00000000000000000 ) ) ;
#71 = FACE_BOUND ( 'NONE', #113, .T. ) ;
#72 = VERTEX_POINT ( 'NONE', #179 ) ;
#73 = CLOSED_SHELL ( 'NONE', ( #161, #108, #93, #129, #240 ) ) ;
#74 = AXIS2_PLACEMENT_3D ( 'NONE', #183, #216, #77 ) ;
#75 = VERTEX_POINT ( 'NONE', #232 ) ;
#76 = LOCAL_TIME ( 11, 3, 36.00000000000000000, #109 ) ;
#77 = DIRECTION ( 'NONE',  ( 1.000000000000000000, 0.0000000000000000000, 0.0000000000000000000 ) ) ;
#78 = APPLICATION_PROTOCOL_DEFINITION ( 'international standard', 'config_control_design', 1994, #143 ) ;
#79 = SECURITY_CLASSIFICATION_LEVEL ( 'unclassified' ) ;
#80 = APPROVAL_ROLE ( '' ) ;
#81 = EDGE_LOOP ( 'NONE', ( #132 ) ) ;
#82 = CONICAL_SURFACE ( 'NONE', #168, 1.999999999999995337, 0.7853981633974516097 ) ;
#83 = ORIENTED_EDGE ( 'NONE', *, *, #115, .F. ) ;
#84 = CARTESIAN_POINT ( 'NONE',  ( 4.541132887127205524E-14, 6.611544389745507304E-15, 13.00632151919753277 ) ) ;
#85 = AXIS2_PLACEMENT_3D ( 'NONE', #21, #177, #20 ) ;
#86 = APPROVAL ( #146, 'UNSPECIFIED' ) ;
#87 = UNCERTAINTY_MEASURE_WITH_UNIT (LENGTH_MEASURE( 1.000000000000000082E-05 ), #186, 'distance_accuracy_value', 'NONE');
#88 = DIRECTION ( 'NONE',  ( -1.774835707671610440E-30, 1.000000000000000000, -5.083331501521597745E-16 ) ) ;
#89 = CARTESIAN_POINT ( 'NONE',  ( 1.396592535537253145E-15, 2.568999999999998618, 0.3999999999999999667 ) ) ;
#90 = AXIS2_PLACEMENT_3D ( 'NONE', #22, #51, #194 ) ;
#91 = DATE_TIME_ROLE ( 'creation_date' ) ;
#92 = ORIENTED_EDGE ( 'NONE', *, *, #115, .T. ) ;
#93 = ADVANCED_FACE ( 'NONE', ( #43, #159 ), #4, .T. ) ;
#94 = PERSON_AND_ORGANIZATION ( #41, #149 ) ;
#95 = CONICAL_SURFACE ( 'NONE', #58, 2.568999999999999506, 0.5235987755982928205 ) ;
#96 = DATE_AND_TIME ( #35, #229 ) ;
#97 = AXIS2_PLACEMENT_3D ( 'NONE', #59, #209, #27 ) ;
#98 = CALENDAR_DATE ( 2021, 26, 11 ) ;
#99 = CARTESIAN_POINT ( 'NONE',  ( 4.541132887127206786E-14, 6.611544389745508882E-15, 13.00632151919753632 ) ) ;
#100 = CIRCLE ( 'NONE', #181, 1.999999999999991784 ) ;
#101 = VERTEX_POINT ( 'NONE', #89 ) ;
#102 = DIRECTION ( 'NONE',  ( 3.153425691349006731E-31, 1.000000000000000000, 9.031770143711729009E-17 ) ) ;
#103 = DIRECTION ( 'NONE',  ( -1.799233891214234702E-30, 1.000000000000000000, -5.064393176265496838E-16 ) ) ;
#104 = FACE_OUTER_BOUND ( 'NONE', #237, .T. ) ;
#105 = PLANE ( 'NONE',  #85 ) ;
#106 = COORDINATED_UNIVERSAL_TIME_OFFSET ( 1, 0, .AHEAD. ) ;
#107 = EDGE_LOOP ( 'NONE', ( #172 ) ) ;
#108 = ADVANCED_FACE ( 'NONE', ( #71, #180 ), #82, .T. ) ;
#109 = COORDINATED_UNIVERSAL_TIME_OFFSET ( 1, 0, .AHEAD. ) ;
#110 = ORIENTED_EDGE ( 'NONE', *, *, #173, .F. ) ;
#111 = CALENDAR_DATE ( 2021, 26, 11 ) ;
#112 = APPROVAL_DATE_TIME ( #207, #86 ) ;
#113 = EDGE_LOOP ( 'NONE', ( #92 ) ) ;
#114 = APPROVAL_ROLE ( '' ) ;
#115 = EDGE_CURVE ( 'NONE', #195, #195, #65, .T. ) ;
#116 = ADVANCED_BREP_SHAPE_REPRESENTATION ( '321417', ( #62, #63, #74 ), #219 ) ;
#117 = DATE_AND_TIME ( #98, #34 ) ;
#118 = APPROVAL ( #17, 'UNSPECIFIED' ) ;
#119 = DIRECTION ( 'NONE',  ( 1.774835707671610791E-30, -1.000000000000000000, 5.083331501521597745E-16 ) ) ;
#120 = AXIS2_PLACEMENT_3D ( 'NONE', #230, #145, #103 ) ;
#121 = CARTESIAN_POINT ( 'NONE',  ( 4.541132887127206155E-14, 2.568999999999998174, 13.00632151919753454 ) ) ;
#122 = PLANE ( 'NONE',  #90 ) ;
#123 = DESIGN_CONTEXT ( 'detailed design', #198, 'design' ) ;
#124 = VERTEX_POINT ( 'NONE', #7 ) ;
#125 = ORIENTED_EDGE ( 'NONE', *, *, #50, .T. ) ;
#126 = CARTESIAN_POINT ( 'NONE',  ( 4.541132887127206155E-14, 2.568999999999998174, 13.00632151919753454 ) ) ;
#127 = DIRECTION ( 'NONE',  ( 0.0000000000000000000, 1.000000000000000000, 0.0000000000000000000 ) ) ;
#128 = COORDINATED_UNIVERSAL_TIME_OFFSET ( 1, 0, .AHEAD. ) ;
#129 = ADVANCED_FACE ( 'NONE', ( #48, #45 ), #95, .T. ) ;
#130 = CALENDAR_DATE ( 2021, 26, 11 ) ;
#131 = PLANE ( 'NONE',  #97 ) ;
#132 = ORIENTED_EDGE ( 'NONE', *, *, #134, .F. ) ;
#133 =( NAMED_UNIT ( * ) SI_UNIT ( $, .STERADIAN. ) SOLID_ANGLE_UNIT ( ) );
#134 = EDGE_CURVE ( 'NONE', #72, #72, #3, .T. ) ;
#135 = AXIS2_PLACEMENT_3D ( 'NONE', #155, #139, #119 ) ;
#136 = PERSON_AND_ORGANIZATION ( #41, #149 ) ;
#137 = AXIS2_PLACEMENT_3D ( 'NONE', #61, #211, #38 ) ;
#138 = CYLINDRICAL_SURFACE ( 'NONE', #137, 2.568999999999995509 ) ;
#139 = DIRECTION ( 'NONE',  ( 3.491481338843133355E-15, 5.083331501521597745E-16, 1.000000000000000000 ) ) ;
#140 = CARTESIAN_POINT ( 'NONE',  ( 4.541132887127206155E-14, -1.174701063766036698E-15, 13.00632151919753454 ) ) ;
#141 = CLOSED_SHELL ( 'NONE', ( #30, #69, #56, #18 ) ) ;
#142 = DIRECTION ( 'NONE',  ( 0.0000000000000000000, 1.000000000000000000, 0.0000000000000000000 ) ) ;
#143 = APPLICATION_CONTEXT ( 'configuration controlled 3d designs of mechanical parts and assemblies' ) ;
#144 = DIRECTION ( 'NONE',  ( 0.0000000000000000000, 1.000000000000000000, 0.0000000000000000000 ) ) ;
#145 = DIRECTION ( 'NONE',  ( -3.491481338843133355E-15, -5.083331501521597745E-16, -1.000000000000000000 ) ) ;
#146 = APPROVAL_STATUS ( 'not_yet_approved' ) ;
#147 = PERSON_AND_ORGANIZATION_ROLE ( 'creator' ) ;
#148 = CARTESIAN_POINT ( 'NONE',  ( 4.885231259955591070E-14, -1.263712492114123682E-15, 13.99185842870425311 ) ) ;
#149 = ORGANIZATION ( 'UNSPECIFIED', 'UNSPECIFIED', '' ) ;
#150 = COORDINATED_UNIVERSAL_TIME_OFFSET ( 1, 0, .AHEAD. ) ;
#151 = ORIENTED_EDGE ( 'NONE', *, *, #134, .T. ) ;
#152 = PRODUCT_DEFINITION_SHAPE ( 'NONE', 'NONE',  #218 ) ;
#153 = PRODUCT_DEFINITION_FORMATION_WITH_SPECIFIED_SOURCE ( 'ANY', '', #188, .NOT_KNOWN. ) ;
#154 = CC_DESIGN_PERSON_AND_ORGANIZATION_ASSIGNMENT ( #205, #201, ( #44 ) ) ;
#155 = CARTESIAN_POINT ( 'NONE',  ( 4.149672183571739781E-30, 6.041607353607530017E-31, 1.188513350309554194E-15 ) ) ;
#156 = AXIS2_PLACEMENT_3D ( 'NONE', #24, #178, #88 ) ;
#157 = DIRECTION ( 'NONE',  ( 1.774835707671610440E-30, -1.000000000000000000, 5.083331501521597745E-16 ) ) ;
#158 = CC_DESIGN_DATE_AND_TIME_ASSIGNMENT ( #54, #203, ( #44 ) ) ;
#159 = FACE_OUTER_BOUND ( 'NONE', #55, .T. ) ;
#160 = CIRCLE ( 'NONE', #156, 2.338059892324149125 ) ;
#161 = ADVANCED_FACE ( 'NONE', ( #104 ), #122, .T. ) ;
#162 = DIRECTION ( 'NONE',  ( -3.491481338843133355E-15, 9.031770143711729009E-17, -1.000000000000000000 ) ) ;
#163 = DIRECTION ( 'NONE',  ( -3.491481338843133355E-15, 9.031770143711729009E-17, -1.000000000000000000 ) ) ;
#164 = VERTEX_POINT ( 'NONE', #121 ) ;
#165 = EDGE_CURVE ( 'NONE', #164, #164, #15, .T. ) ;
#166 = EDGE_LOOP ( 'NONE', ( #110 ) ) ;
#167 = APPROVAL_ROLE ( '' ) ;
#168 = AXIS2_PLACEMENT_3D ( 'NONE', #6, #228, #2 ) ;
#169 = LOCAL_TIME ( 11, 3, 36.00000000000000000, #235 ) ;
#170 = PERSON_AND_ORGANIZATION ( #41, #149 ) ;
#171 = ORIENTED_EDGE ( 'NONE', *, *, #1, .T. ) ;
#172 = ORIENTED_EDGE ( 'NONE', *, *, #208, .T. ) ;
#173 = EDGE_CURVE ( 'NONE', #101, #101, #39, .T. ) ;
#174 = CC_DESIGN_PERSON_AND_ORGANIZATION_ASSIGNMENT ( #52, #147, ( #218 ) ) ;
#175 = CC_DESIGN_SECURITY_CLASSIFICATION ( #44, ( #153 ) ) ;
#176 = PRODUCT_RELATED_PRODUCT_CATEGORY ( 'detail', '', ( #188 ) ) ;
#177 = DIRECTION ( 'NONE',  ( -3.491481338843133355E-15, 9.031770143711729009E-17, -1.000000000000000000 ) ) ;
#178 = DIRECTION ( 'NONE',  ( -3.491481338843133355E-15, -5.083331501521597745E-16, -1.000000000000000000 ) ) ;
#179 = CARTESIAN_POINT ( 'NONE',  ( 2.779219145719134403E-13, 1.999999999999988010, 79.60000000000000853 ) ) ;
#180 = FACE_OUTER_BOUND ( 'NONE', #81, .T. ) ;
#181 = AXIS2_PLACEMENT_3D ( 'NONE', #148, #204, #29 ) ;
#182 = ORIENTED_EDGE ( 'NONE', *, *, #1, .F. ) ;
#183 = CARTESIAN_POINT ( 'NONE',  ( 0.0000000000000000000, 0.0000000000000000000, 0.0000000000000000000 ) ) ;
#184 = AXIS2_PLACEMENT_3D ( 'NONE', #70, #162, #68 ) ;
#185 = PERSON_AND_ORGANIZATION ( #41, #149 ) ;
#186 =( LENGTH_UNIT ( ) NAMED_UNIT ( * ) SI_UNIT ( .MILLI., .METRE. ) );
#187 = EDGE_LOOP ( 'NONE', ( #151 ) ) ;
#188 = PRODUCT ( '321417', '321417', '', ( #53 ) ) ;
#189 = DIRECTION ( 'NONE',  ( -3.491481338843133355E-15, -5.083331501521597745E-16, -1.000000000000000000 ) ) ;
#190 = AXIS2_PLACEMENT_3D ( 'NONE', #214, #163, #144 ) ;
#191 = FACE_OUTER_BOUND ( 'NONE', #166, .T. ) ;
#192 = CC_DESIGN_APPROVAL ( #118, ( #44 ) ) ;
#193 = DIRECTION ( 'NONE',  ( -3.491481338843133355E-15, 9.031770143711729009E-17, -1.000000000000000000 ) ) ;
#194 = DIRECTION ( 'NONE',  ( -3.153425691349006731E-31, -1.000000000000000000, -9.031770143711729009E-17 ) ) ;
#195 = VERTEX_POINT ( 'NONE', #8 ) ;
#196 = AXIS2_PLACEMENT_3D ( 'NONE', #46, #23, #102 ) ;
#197 = CARTESIAN_POINT ( 'NONE',  ( 4.541132887127206155E-14, -1.174701063766036698E-15, 13.00632151919753454 ) ) ;
#198 = APPLICATION_CONTEXT ( 'configuration controlled 3d designs of mechanical parts and assemblies' ) ;
#199 = APPROVAL_DATE_TIME ( #31, #5 ) ;
#200 = EDGE_LOOP ( 'NONE', ( #36 ) ) ;
#201 = PERSON_AND_ORGANIZATION_ROLE ( 'classification_officer' ) ;
#202 = ORIENTED_EDGE ( 'NONE', *, *, #173, .T. ) ;
#203 = DATE_TIME_ROLE ( 'classification_date' ) ;
#204 = DIRECTION ( 'NONE',  ( -3.491481338843133355E-15, 9.031770143711729009E-17, -1.000000000000000000 ) ) ;
#205 = PERSON_AND_ORGANIZATION ( #41, #149 ) ;
#206 = EDGE_LOOP ( 'NONE', ( #238 ) ) ;
#207 = DATE_AND_TIME ( #130, #16 ) ;
#208 = EDGE_CURVE ( 'NONE', #75, #75, #160, .T. ) ;
#209 = DIRECTION ( 'NONE',  ( -3.491481338843133355E-15, -5.083331501521597745E-16, -1.000000000000000000 ) ) ;
#210 = FACE_OUTER_BOUND ( 'NONE', #200, .T. ) ;
#211 = DIRECTION ( 'NONE',  ( -3.491481338843133355E-15, -5.083331501521597745E-16, -1.000000000000000000 ) ) ;
#212 = CC_DESIGN_PERSON_AND_ORGANIZATION_ASSIGNMENT ( #185, #12, ( #153 ) ) ;
#213 = FACE_OUTER_BOUND ( 'NONE', #206, .T. ) ;
#214 = CARTESIAN_POINT ( 'NONE',  ( 2.779219145719134403E-13, -7.189289034394536528E-15, 79.60000000000000853 ) ) ;
#215 = VERTEX_POINT ( 'NONE', #126 ) ;
#216 = DIRECTION ( 'NONE',  ( 0.0000000000000000000, 0.0000000000000000000, 1.000000000000000000 ) ) ;
#217 =( NAMED_UNIT ( * ) PLANE_ANGLE_UNIT ( ) SI_UNIT ( $, .RADIAN. ) );
#218 = PRODUCT_DEFINITION ( 'UNKNOWN', '', #153, #123 ) ;
#219 =( GEOMETRIC_REPRESENTATION_CONTEXT ( 3 ) GLOBAL_UNCERTAINTY_ASSIGNED_CONTEXT ( ( #87 ) ) GLOBAL_UNIT_ASSIGNED_CONTEXT ( ( #186, #217, #133 ) ) REPRESENTATION_CONTEXT ( 'NONE', 'WORKASPACE' ) );
#220 = CALENDAR_DATE ( 2021, 26, 11 ) ;
#221 = ORIENTED_EDGE ( 'NONE', *, *, #208, .F. ) ;
#222 = EDGE_LOOP ( 'NONE', ( #125 ) ) ;
#223 = FACE_OUTER_BOUND ( 'NONE', #107, .T. ) ;
#224 = FACE_OUTER_BOUND ( 'NONE', #234, .T. ) ;
#225 = APPROVAL_PERSON_ORGANIZATION ( #10, #5, #114 ) ;
#226 = DIRECTION ( 'NONE',  ( -3.491481338843133355E-15, 9.031770143711729009E-17, -1.000000000000000000 ) ) ;
#227 = AXIS2_PLACEMENT_3D ( 'NONE', #99, #189, #67 ) ;
#228 = DIRECTION ( 'NONE',  ( -3.491481338843133355E-15, 9.031770143711729009E-17, -1.000000000000000000 ) ) ;
#229 = LOCAL_TIME ( 11, 3, 36.00000000000000000, #128 ) ;
#230 = CARTESIAN_POINT ( 'NONE',  ( 1.396592535537257681E-15, 2.033332600608645359E-16, 0.4000000000000012434 ) ) ;
#231 = CONICAL_SURFACE ( 'NONE', #135, 2.338059892324149125, 0.5235987755982978165 ) ;
#232 = CARTESIAN_POINT ( 'NONE',  ( -6.842277657836020854E-46, 2.338059892324149125, 0.0000000000000000000 ) ) ;
#233 = CIRCLE ( 'NONE', #227, 2.568999999999991957 ) ;
#234 = EDGE_LOOP ( 'NONE', ( #202 ) ) ;
#235 = COORDINATED_UNIVERSAL_TIME_OFFSET ( 1, 0, .AHEAD. ) ;
#236 = APPROVAL_STATUS ( 'not_yet_approved' ) ;
#237 = EDGE_LOOP ( 'NONE', ( #83 ) ) ;
#238 = ORIENTED_EDGE ( 'NONE', *, *, #165, .T. ) ;
#239 = FACE_OUTER_BOUND ( 'NONE', #222, .T. ) ;
#240 = ADVANCED_FACE ( 'NONE', ( #213 ), #105, .T. ) ;
#241 = FACE_BOUND ( 'NONE', #14, .T. ) ;
#242 = APPROVAL_DATE_TIME ( #117, #118 ) ;
#243 = APPROVAL_PERSON_ORGANIZATION ( #170, #86, #167 ) ;
ENDSEC;
END-ISO-10303-21;
