ISO-10303-21;
HEADER;
FILE_DESCRIPTION (( 'STEP AP203' ),
    '1' );
FILE_NAME ('321416.step',
    '2021-11-26T10:03:36',
    ( '' ),
    ( '' ),
    'SwSTEP 2.0',
    'SolidWorks 2019',
    '' );
FILE_SCHEMA (( 'CONFIG_CONTROL_DESIGN' ));
ENDSEC;

DATA;
#1 = CALENDAR_DATE ( 2021, 26, 11 ) ;
#2 = DATE_AND_TIME ( #154, #102 ) ;
#3 = AXIS2_PLACEMENT_3D ( 'NONE', #115, #192, #239 ) ;
#4 = EDGE_LOOP ( 'NONE', ( #38 ) ) ;
#5 = PERSON_AND_ORGANIZATION_ROLE ( 'design_supplier' ) ;
#6 = DIRECTION ( 'NONE',  ( -3.491481338843133355E-15, 9.031770143711729009E-17, -1.000000000000000000 ) ) ;
#7 = EDGE_LOOP ( 'NONE', ( #119 ) ) ;
#8 = DIRECTION ( 'NONE',  ( 0.0000000000000000000, 1.000000000000000000, 0.0000000000000000000 ) ) ;
#9 = CARTESIAN_POINT ( 'NONE',  ( -6.842277657836020854E-46, 2.333059892324147899, 0.0000000000000000000 ) ) ;
#10 = PRODUCT_DEFINITION_SHAPE ( 'NONE', 'NONE',  #168 ) ;
#11 = CIRCLE ( 'NONE', #27, 1.999999999999995337 ) ;
#12 =( NAMED_UNIT ( * ) PLANE_ANGLE_UNIT ( ) SI_UNIT ( $, .RADIAN. ) );
#13 = ADVANCED_FACE ( 'NONE', ( #51 ), #56, .T. ) ;
#14 = DIRECTION ( 'NONE',  ( 3.491481338843133355E-15, 5.078319243489054270E-16, 1.000000000000000000 ) ) ;
#15 = ORIENTED_EDGE ( 'NONE', *, *, #185, .T. ) ;
#16 = EDGE_CURVE ( 'NONE', #82, #82, #140, .T. ) ;
#17 = CARTESIAN_POINT ( 'NONE',  ( 0.0000000000000000000, 0.0000000000000000000, 0.0000000000000000000 ) ) ;
#18 = CC_DESIGN_APPROVAL ( #124, ( #168 ) ) ;
#19 = APPROVAL_ROLE ( '' ) ;
#20 = ORIENTED_EDGE ( 'NONE', *, *, #103, .F. ) ;
#21 = APPROVAL_STATUS ( 'not_yet_approved' ) ;
#22 = APPROVAL_DATE_TIME ( #76, #23 ) ;
#23 = APPROVAL ( #213, 'UNSPECIFIED' ) ;
#24 = CARTESIAN_POINT ( 'NONE',  ( 4.544156598663484291E-14, 2.563999999999998280, 13.01498177323538030 ) ) ;
#25 = FACE_BOUND ( 'NONE', #195, .T. ) ;
#26 = EDGE_LOOP ( 'NONE', ( #231 ) ) ;
#27 = AXIS2_PLACEMENT_3D ( 'NONE', #158, #6, #184 ) ;
#28 = DIRECTION ( 'NONE',  ( 1.773085687133000905E-30, -1.000000000000000000, 5.078319243489054270E-16 ) ) ;
#29 = FACE_OUTER_BOUND ( 'NONE', #79, .T. ) ;
#30 = PERSON_AND_ORGANIZATION ( #160, #219 ) ;
#31 =( LENGTH_UNIT ( ) NAMED_UNIT ( * ) SI_UNIT ( .MILLI., .METRE. ) );
#32 = CARTESIAN_POINT ( 'NONE',  ( 1.396592535537257681E-15, 2.031327697395628265E-16, 0.4000000000000012434 ) ) ;
#33 = CYLINDRICAL_SURFACE ( 'NONE', #53, 2.563999999999994728 ) ;
#34 = CLOSED_SHELL ( 'NONE', ( #146, #159, #66, #206, #216 ) ) ;
#35 = ORIENTED_EDGE ( 'NONE', *, *, #230, .T. ) ;
#36 = COORDINATED_UNIVERSAL_TIME_OFFSET ( 1, 0, .AHEAD. ) ;
#37 = EDGE_CURVE ( 'NONE', #200, #200, #162, .T. ) ;
#38 = ORIENTED_EDGE ( 'NONE', *, *, #16, .T. ) ;
#39 = PERSON_AND_ORGANIZATION ( #160, #219 ) ;
#40 = AXIS2_PLACEMENT_3D ( 'NONE', #42, #164, #187 ) ;
#41 = FACE_OUTER_BOUND ( 'NONE', #4, .T. ) ;
#42 = CARTESIAN_POINT ( 'NONE',  ( 4.544156598663484922E-14, 6.609423239268054060E-15, 13.01498177323538208 ) ) ;
#43 = ORIENTED_EDGE ( 'NONE', *, *, #16, .F. ) ;
#44 = CARTESIAN_POINT ( 'NONE',  ( 4.544156598663484291E-14, 2.563999999999998280, 13.01498177323538030 ) ) ;
#45 = FACE_OUTER_BOUND ( 'NONE', #197, .T. ) ;
#46 = CC_DESIGN_PERSON_AND_ORGANIZATION_ASSIGNMENT ( #224, #5, ( #218 ) ) ;
#47 = EDGE_LOOP ( 'NONE', ( #43 ) ) ;
#48 = CARTESIAN_POINT ( 'NONE',  ( 2.793185071074506684E-13, 1.599999999999987876, 80.00000000000000000 ) ) ;
#49 = SECURITY_CLASSIFICATION_LEVEL ( 'unclassified' ) ;
#50 = CARTESIAN_POINT ( 'NONE',  ( 4.885231259955590439E-14, -1.263712492114123682E-15, 13.99185842870425134 ) ) ;
#51 = FACE_OUTER_BOUND ( 'NONE', #69, .T. ) ;
#52 = MECHANICAL_CONTEXT ( 'NONE', #98, 'mechanical' ) ;
#53 = AXIS2_PLACEMENT_3D ( 'NONE', #17, #167, #133 ) ;
#54 = APPROVAL_PERSON_ORGANIZATION ( #30, #233, #19 ) ;
#55 = CARTESIAN_POINT ( 'NONE',  ( 2.793185071074506684E-13, -7.225416114969383207E-15, 80.00000000000000000 ) ) ;
#56 = PLANE ( 'NONE',  #227 ) ;
#57 = CONICAL_SURFACE ( 'NONE', #211, 2.333059892324147899, 0.5235987755982978165 ) ;
#58 = EDGE_LOOP ( 'NONE', ( #198 ) ) ;
#59 = PERSON_AND_ORGANIZATION ( #160, #219 ) ;
#60 = AXIS2_PLACEMENT_3D ( 'NONE', #145, #222, #126 ) ;
#61 = FACE_OUTER_BOUND ( 'NONE', #99, .T. ) ;
#62 = VERTEX_POINT ( 'NONE', #141 ) ;
#63 = CARTESIAN_POINT ( 'NONE',  ( 4.136715102304007158E-30, 6.016804293109260678E-31, 1.184802294740222015E-15 ) ) ;
#64 = CC_DESIGN_APPROVAL ( #23, ( #218 ) ) ;
#65 = VERTEX_POINT ( 'NONE', #44 ) ;
#66 = ADVANCED_FACE ( 'NONE', ( #225, #29 ), #91, .T. ) ;
#67 = PLANE ( 'NONE',  #237 ) ;
#68 = PLANE ( 'NONE',  #60 ) ;
#69 = EDGE_LOOP ( 'NONE', ( #182 ) ) ;
#70 = APPLICATION_PROTOCOL_DEFINITION ( 'international standard', 'config_control_design', 1994, #130 ) ;
#71 = APPROVAL_STATUS ( 'not_yet_approved' ) ;
#72 = DIRECTION ( 'NONE',  ( 1.773085687133001256E-30, -1.000000000000000000, 5.078319243489054270E-16 ) ) ;
#73 = EDGE_LOOP ( 'NONE', ( #35 ) ) ;
#74 = CIRCLE ( 'NONE', #127, 1.599999999999994982 ) ;
#75 = UNCERTAINTY_MEASURE_WITH_UNIT (LENGTH_MEASURE( 1.000000000000000082E-05 ), #31, 'distance_accuracy_value', 'NONE');
#76 = DATE_AND_TIME ( #205, #178 ) ;
#77 = CC_DESIGN_PERSON_AND_ORGANIZATION_ASSIGNMENT ( #59, #196, ( #168 ) ) ;
#78 = AXIS2_PLACEMENT_3D ( 'NONE', #81, #86, #199 ) ;
#79 = EDGE_LOOP ( 'NONE', ( #20 ) ) ;
#80 = PERSON_AND_ORGANIZATION_ROLE ( 'classification_officer' ) ;
#81 = CARTESIAN_POINT ( 'NONE',  ( 4.544156598663484291E-14, -1.175483238004596388E-15, 13.01498177323538030 ) ) ;
#82 = VERTEX_POINT ( 'NONE', #217 ) ;
#83 = DIRECTION ( 'NONE',  ( -3.491481338843133355E-15, 9.031770143711729009E-17, -1.000000000000000000 ) ) ;
#84 = DIRECTION ( 'NONE',  ( 0.0000000000000000000, 1.000000000000000000, 0.0000000000000000000 ) ) ;
#85 = AXIS2_PLACEMENT_3D ( 'NONE', #223, #204, #92 ) ;
#86 = DIRECTION ( 'NONE',  ( -3.491481338843133355E-15, 9.031770143711729009E-17, -1.000000000000000000 ) ) ;
#87 = PRODUCT ( '321416', '321416', '', ( #52 ) ) ;
#88 = DIRECTION ( 'NONE',  ( -3.491481338843133355E-15, 9.031770143711729009E-17, -1.000000000000000000 ) ) ;
#89 = DIRECTION ( 'NONE',  ( -3.491481338843133355E-15, 9.031770143711729009E-17, -1.000000000000000000 ) ) ;
#90 = PERSON_AND_ORGANIZATION_ROLE ( 'design_owner' ) ;
#91 = CYLINDRICAL_SURFACE ( 'NONE', #85, 1.999999999999993561 ) ;
#92 = DIRECTION ( 'NONE',  ( 3.153425691349006731E-31, 1.000000000000000000, 9.031770143711729009E-17 ) ) ;
#93 = ORIENTED_EDGE ( 'NONE', *, *, #37, .F. ) ;
#94 = CC_DESIGN_PERSON_AND_ORGANIZATION_ASSIGNMENT ( #241, #177, ( #218 ) ) ;
#95 = FACE_OUTER_BOUND ( 'NONE', #47, .T. ) ;
#96 = DESIGN_CONTEXT ( 'detailed design', #130, 'design' ) ;
#97 = APPROVAL_PERSON_ORGANIZATION ( #169, #124, #117 ) ;
#98 = APPLICATION_CONTEXT ( 'configuration controlled 3d designs of mechanical parts and assemblies' ) ;
#99 = EDGE_LOOP ( 'NONE', ( #93 ) ) ;
#100 = DATE_AND_TIME ( #118, #143 ) ;
#101 = SECURITY_CLASSIFICATION ( '', '', #49 ) ;
#102 = LOCAL_TIME ( 11, 3, 36.00000000000000000, #120 ) ;
#103 = EDGE_CURVE ( 'NONE', #215, #215, #125, .T. ) ;
#104 = EDGE_LOOP ( 'NONE', ( #15 ) ) ;
#105 = CARTESIAN_POINT ( 'NONE',  ( 4.136715102304007158E-30, 6.016804293109260678E-31, 1.184802294740222015E-15 ) ) ;
#106 = CARTESIAN_POINT ( 'NONE',  ( 4.544156598663485553E-14, 2.563999999999998280, 13.01498177323538386 ) ) ;
#107 = CIRCLE ( 'NONE', #40, 2.563999999999991619 ) ;
#108 = CARTESIAN_POINT ( 'NONE',  ( 4.885231259955590439E-14, 1.999999999999990452, 13.99185842870425134 ) ) ;
#109 =( GEOMETRIC_REPRESENTATION_CONTEXT ( 3 ) GLOBAL_UNCERTAINTY_ASSIGNED_CONTEXT ( ( #75 ) ) GLOBAL_UNIT_ASSIGNED_CONTEXT ( ( #31, #12, #128 ) ) REPRESENTATION_CONTEXT ( 'NONE', 'WORKASPACE' ) );
#110 = VERTEX_POINT ( 'NONE', #48 ) ;
#111 = CARTESIAN_POINT ( 'NONE',  ( 2.793185071074506684E-13, -7.225416114969383207E-15, 80.00000000000000000 ) ) ;
#112 = DIRECTION ( 'NONE',  ( -3.491481338843133355E-15, -5.078319243489054270E-16, -1.000000000000000000 ) ) ;
#113 = AXIS2_PLACEMENT_3D ( 'NONE', #55, #172, #243 ) ;
#114 = LOCAL_TIME ( 11, 3, 36.00000000000000000, #214 ) ;
#115 = CARTESIAN_POINT ( 'NONE',  ( 0.0000000000000000000, 0.0000000000000000000, 0.0000000000000000000 ) ) ;
#116 = FACE_OUTER_BOUND ( 'NONE', #7, .T. ) ;
#117 = APPROVAL_ROLE ( '' ) ;
#118 = CALENDAR_DATE ( 2021, 26, 11 ) ;
#119 = ORIENTED_EDGE ( 'NONE', *, *, #212, .T. ) ;
#120 = COORDINATED_UNIVERSAL_TIME_OFFSET ( 1, 0, .AHEAD. ) ;
#121 = AXIS2_PLACEMENT_3D ( 'NONE', #161, #186, #84 ) ;
#122 = CC_DESIGN_DATE_AND_TIME_ASSIGNMENT ( #175, #232, ( #101 ) ) ;
#123 = DIRECTION ( 'NONE',  ( -1.773085687133001256E-30, 1.000000000000000000, -5.078319243489054270E-16 ) ) ;
#124 = APPROVAL ( #21, 'UNSPECIFIED' ) ;
#125 = CIRCLE ( 'NONE', #183, 1.999999999999991784 ) ;
#126 = DIRECTION ( 'NONE',  ( -1.773085687133001256E-30, 1.000000000000000000, -5.078319243489054270E-16 ) ) ;
#127 = AXIS2_PLACEMENT_3D ( 'NONE', #111, #89, #8 ) ;
#128 =( NAMED_UNIT ( * ) SI_UNIT ( $, .STERADIAN. ) SOLID_ANGLE_UNIT ( ) );
#129 = ADVANCED_FACE ( 'NONE', ( #116, #95 ), #33, .T. ) ;
#130 = APPLICATION_CONTEXT ( 'configuration controlled 3d designs of mechanical parts and assemblies' ) ;
#131 = SHAPE_DEFINITION_REPRESENTATION ( #10, #153 ) ;
#132 = ORIENTED_EDGE ( 'NONE', *, *, #37, .T. ) ;
#133 = DIRECTION ( 'NONE',  ( -1.773085687133001256E-30, 1.000000000000000000, -5.078319243489054270E-16 ) ) ;
#134 = LOCAL_TIME ( 11, 3, 36.00000000000000000, #208 ) ;
#135 = DIRECTION ( 'NONE',  ( 0.0000000000000000000, 1.000000000000000000, 0.0000000000000000000 ) ) ;
#136 = APPROVAL_DATE_TIME ( #2, #233 ) ;
#137 = CONICAL_SURFACE ( 'NONE', #78, 2.563999999999999613, 0.5235987755982937086 ) ;
#138 = DATE_TIME_ROLE ( 'creation_date' ) ;
#139 = APPROVAL_ROLE ( '' ) ;
#140 = CIRCLE ( 'NONE', #174, 2.563999999999997836 ) ;
#141 = CARTESIAN_POINT ( 'NONE',  ( 2.779219145719134403E-13, 1.999999999999988010, 79.60000000000000853 ) ) ;
#142 = DIRECTION ( 'NONE',  ( 3.491481338843133355E-15, 5.078319243489054270E-16, 1.000000000000000000 ) ) ;
#143 = LOCAL_TIME ( 11, 3, 36.00000000000000000, #193 ) ;
#144 = DIRECTION ( 'NONE',  ( 3.153425691349006731E-31, 1.000000000000000000, 9.031770143711729009E-17 ) ) ;
#145 = CARTESIAN_POINT ( 'NONE',  ( -2.068357551152003579E-30, 2.333059892324147899, -5.924011473701110075E-16 ) ) ;
#146 = ADVANCED_FACE ( 'NONE', ( #209 ), #226, .T. ) ;
#147 = DIRECTION ( 'NONE',  ( -1.802742537647960052E-30, 1.000000000000000000, -5.074269137997684529E-16 ) ) ;
#148 = ORIENTED_EDGE ( 'NONE', *, *, #103, .T. ) ;
#149 = PERSON_AND_ORGANIZATION ( #160, #219 ) ;
#150 = CARTESIAN_POINT ( 'NONE',  ( 4.544156598663484291E-14, -1.175483238004596388E-15, 13.01498177323538030 ) ) ;
#151 = EDGE_LOOP ( 'NONE', ( #132 ) ) ;
#152 = AXIS2_PLACEMENT_3D ( 'NONE', #63, #220, #123 ) ;
#153 = ADVANCED_BREP_SHAPE_REPRESENTATION ( '321416', ( #180, #181, #3 ), #109 ) ;
#154 = CALENDAR_DATE ( 2021, 26, 11 ) ;
#155 = AXIS2_PLACEMENT_3D ( 'NONE', #150, #88, #135 ) ;
#156 = CALENDAR_DATE ( 2021, 26, 11 ) ;
#157 = APPROVAL_PERSON_ORGANIZATION ( #149, #23, #139 ) ;
#158 = CARTESIAN_POINT ( 'NONE',  ( 2.779219145719134403E-13, -7.189289034394536528E-15, 79.60000000000000853 ) ) ;
#159 = ADVANCED_FACE ( 'NONE', ( #194, #45 ), #188, .T. ) ;
#160 = PERSON ( 'UNSPECIFIED', 'UNSPECIFIED', 'UNSPECIFIED', ('UNSPECIFIED'), ('UNSPECIFIED'), ('UNSPECIFIED') ) ;
#161 = CARTESIAN_POINT ( 'NONE',  ( 2.779219145719134403E-13, -7.189289034394536528E-15, 79.60000000000000853 ) ) ;
#162 = CIRCLE ( 'NONE', #155, 2.563999999999999613 ) ;
#163 = APPLICATION_PROTOCOL_DEFINITION ( 'international standard', 'config_control_design', 1994, #98 ) ;
#164 = DIRECTION ( 'NONE',  ( -3.491481338843133355E-15, -5.078319243489054270E-16, -1.000000000000000000 ) ) ;
#165 = CC_DESIGN_PERSON_AND_ORGANIZATION_ASSIGNMENT ( #39, #80, ( #101 ) ) ;
#166 = FACE_OUTER_BOUND ( 'NONE', #58, .T. ) ;
#167 = DIRECTION ( 'NONE',  ( -3.491481338843133355E-15, -5.078319243489054270E-16, -1.000000000000000000 ) ) ;
#168 = PRODUCT_DEFINITION ( 'UNKNOWN', '', #218, #96 ) ;
#169 = PERSON_AND_ORGANIZATION ( #160, #219 ) ;
#170 = DIRECTION ( 'NONE',  ( 0.0000000000000000000, 1.000000000000000000, 0.0000000000000000000 ) ) ;
#171 = DIRECTION ( 'NONE',  ( -3.491481338843133355E-15, 9.031770143711729009E-17, -1.000000000000000000 ) ) ;
#172 = DIRECTION ( 'NONE',  ( 3.491481338843133355E-15, -9.031770143711729009E-17, 1.000000000000000000 ) ) ;
#173 = CC_DESIGN_APPROVAL ( #233, ( #101 ) ) ;
#174 = AXIS2_PLACEMENT_3D ( 'NONE', #32, #112, #147 ) ;
#175 = DATE_AND_TIME ( #156, #134 ) ;
#176 = ORIENTED_EDGE ( 'NONE', *, *, #230, .F. ) ;
#177 = PERSON_AND_ORGANIZATION_ROLE ( 'creator' ) ;
#178 = LOCAL_TIME ( 11, 3, 36.00000000000000000, #36 ) ;
#179 = ADVANCED_FACE ( 'NONE', ( #41, #240 ), #57, .T. ) ;
#180 = MANIFOLD_SOLID_BREP ( 'Corps-Déplacer/Copier1[1]', #34 ) ;
#181 = MANIFOLD_SOLID_BREP ( 'Corps-Déplacer/Copier1[2]', #191 ) ;
#182 = ORIENTED_EDGE ( 'NONE', *, *, #212, .F. ) ;
#183 = AXIS2_PLACEMENT_3D ( 'NONE', #50, #171, #170 ) ;
#184 = DIRECTION ( 'NONE',  ( 0.0000000000000000000, 1.000000000000000000, 0.0000000000000000000 ) ) ;
#185 = EDGE_CURVE ( 'NONE', #62, #62, #11, .T. ) ;
#186 = DIRECTION ( 'NONE',  ( -3.491481338843133355E-15, 9.031770143711729009E-17, -1.000000000000000000 ) ) ;
#187 = DIRECTION ( 'NONE',  ( -2.403656716863952925E-30, 1.000000000000000000, -6.765692183996930126E-16 ) ) ;
#188 = CONICAL_SURFACE ( 'NONE', #121, 1.999999999999995337, 0.7853981633974516097 ) ;
#189 = PERSON_AND_ORGANIZATION ( #160, #219 ) ;
#190 = EDGE_LOOP ( 'NONE', ( #176 ) ) ;
#191 = CLOSED_SHELL ( 'NONE', ( #13, #129, #179, #221 ) ) ;
#192 = DIRECTION ( 'NONE',  ( 0.0000000000000000000, 0.0000000000000000000, 1.000000000000000000 ) ) ;
#193 = COORDINATED_UNIVERSAL_TIME_OFFSET ( 1, 0, .AHEAD. ) ;
#194 = FACE_BOUND ( 'NONE', #73, .T. ) ;
#195 = EDGE_LOOP ( 'NONE', ( #148 ) ) ;
#196 = PERSON_AND_ORGANIZATION_ROLE ( 'creator' ) ;
#197 = EDGE_LOOP ( 'NONE', ( #235 ) ) ;
#198 = ORIENTED_EDGE ( 'NONE', *, *, #210, .T. ) ;
#199 = DIRECTION ( 'NONE',  ( 0.0000000000000000000, 1.000000000000000000, 0.0000000000000000000 ) ) ;
#200 = VERTEX_POINT ( 'NONE', #24 ) ;
#201 = FACE_OUTER_BOUND ( 'NONE', #151, .T. ) ;
#202 = CC_DESIGN_DATE_AND_TIME_ASSIGNMENT ( #229, #138, ( #168 ) ) ;
#203 = PRODUCT_RELATED_PRODUCT_CATEGORY ( 'detail', '', ( #87 ) ) ;
#204 = DIRECTION ( 'NONE',  ( -3.491481338843133355E-15, 9.031770143711729009E-17, -1.000000000000000000 ) ) ;
#205 = CALENDAR_DATE ( 2021, 26, 11 ) ;
#206 = ADVANCED_FACE ( 'NONE', ( #25, #61 ), #137, .T. ) ;
#207 = CARTESIAN_POINT ( 'NONE',  ( 4.544156598663485553E-14, 6.609423239268054060E-15, 13.01498177323538386 ) ) ;
#208 = COORDINATED_UNIVERSAL_TIME_OFFSET ( 1, 0, .AHEAD. ) ;
#209 = FACE_OUTER_BOUND ( 'NONE', #190, .T. ) ;
#210 = EDGE_CURVE ( 'NONE', #236, #236, #234, .T. ) ;
#211 = AXIS2_PLACEMENT_3D ( 'NONE', #105, #142, #28 ) ;
#212 = EDGE_CURVE ( 'NONE', #65, #65, #107, .T. ) ;
#213 = APPROVAL_STATUS ( 'not_yet_approved' ) ;
#214 = COORDINATED_UNIVERSAL_TIME_OFFSET ( 1, 0, .AHEAD. ) ;
#215 = VERTEX_POINT ( 'NONE', #108 ) ;
#216 = ADVANCED_FACE ( 'NONE', ( #201 ), #67, .T. ) ;
#217 = CARTESIAN_POINT ( 'NONE',  ( 1.396592535537253145E-15, 2.563999999999997836, 0.3999999999999999667 ) ) ;
#218 = PRODUCT_DEFINITION_FORMATION_WITH_SPECIFIED_SOURCE ( 'ANY', '', #87, .NOT_KNOWN. ) ;
#219 = ORGANIZATION ( 'UNSPECIFIED', 'UNSPECIFIED', '' ) ;
#220 = DIRECTION ( 'NONE',  ( -3.491481338843133355E-15, -5.078319243489054270E-16, -1.000000000000000000 ) ) ;
#221 = ADVANCED_FACE ( 'NONE', ( #166 ), #68, .T. ) ;
#222 = DIRECTION ( 'NONE',  ( -3.491481338843133355E-15, -5.078319243489054270E-16, -1.000000000000000000 ) ) ;
#223 = CARTESIAN_POINT ( 'NONE',  ( 0.0000000000000000000, 0.0000000000000000000, 0.0000000000000000000 ) ) ;
#224 = PERSON_AND_ORGANIZATION ( #160, #219 ) ;
#225 = FACE_OUTER_BOUND ( 'NONE', #104, .T. ) ;
#226 = PLANE ( 'NONE',  #113 ) ;
#227 = AXIS2_PLACEMENT_3D ( 'NONE', #207, #14, #72 ) ;
#228 = APPROVAL_DATE_TIME ( #100, #124 ) ;
#229 = DATE_AND_TIME ( #1, #114 ) ;
#230 = EDGE_CURVE ( 'NONE', #110, #110, #74, .T. ) ;
#231 = ORIENTED_EDGE ( 'NONE', *, *, #210, .F. ) ;
#232 = DATE_TIME_ROLE ( 'classification_date' ) ;
#233 = APPROVAL ( #71, 'UNSPECIFIED' ) ;
#234 = CIRCLE ( 'NONE', #152, 2.333059892324147899 ) ;
#235 = ORIENTED_EDGE ( 'NONE', *, *, #185, .F. ) ;
#236 = VERTEX_POINT ( 'NONE', #9 ) ;
#237 = AXIS2_PLACEMENT_3D ( 'NONE', #106, #83, #144 ) ;
#238 = CC_DESIGN_SECURITY_CLASSIFICATION ( #101, ( #218 ) ) ;
#239 = DIRECTION ( 'NONE',  ( 1.000000000000000000, 0.0000000000000000000, 0.0000000000000000000 ) ) ;
#240 = FACE_BOUND ( 'NONE', #26, .T. ) ;
#241 = PERSON_AND_ORGANIZATION ( #160, #219 ) ;
#242 = CC_DESIGN_PERSON_AND_ORGANIZATION_ASSIGNMENT ( #189, #90, ( #87 ) ) ;
#243 = DIRECTION ( 'NONE',  ( -3.153425691349006731E-31, -1.000000000000000000, -9.031770143711729009E-17 ) ) ;
ENDSEC;
END-ISO-10303-21;
