ISO-10303-21;
HEADER;
FILE_DESCRIPTION (( 'STEP AP203' ),
    '1' );
FILE_NAME ('321415.step',
    '2021-11-26T10:03:35',
    ( '' ),
    ( '' ),
    'SwSTEP 2.0',
    'SolidWorks 2019',
    '' );
FILE_SCHEMA (( 'CONFIG_CONTROL_DESIGN' ));
ENDSEC;

DATA;
#1 = EDGE_LOOP ( 'NONE', ( #192 ) ) ;
#2 = EDGE_LOOP ( 'NONE', ( #69 ) ) ;
#3 = CALENDAR_DATE ( 2021, 26, 11 ) ;
#4 = DATE_AND_TIME ( #179, #175 ) ;
#5 = CIRCLE ( 'NONE', #215, 1.999999999999995337 ) ;
#6 = DIRECTION ( 'NONE',  ( 1.771337993995961523E-30, -1.000000000000000000, 5.073313651399541334E-16 ) ) ;
#7 = PERSON_AND_ORGANIZATION ( #193, #17 ) ;
#8 = DIRECTION ( 'NONE',  ( -3.491481338843133355E-15, 9.031770143711729009E-17, -1.000000000000000000 ) ) ;
#9 = DIRECTION ( 'NONE',  ( -1.771337993995961523E-30, 1.000000000000000000, -5.073313651399541334E-16 ) ) ;
#10 = AXIS2_PLACEMENT_3D ( 'NONE', #163, #59, #37 ) ;
#11 = PLANE ( 'NONE',  #232 ) ;
#12 = CC_DESIGN_PERSON_AND_ORGANIZATION_ASSIGNMENT ( #151, #211, ( #30 ) ) ;
#13 = ORIENTED_EDGE ( 'NONE', *, *, #172, .T. ) ;
#14 = EDGE_CURVE ( 'NONE', #224, #224, #56, .T. ) ;
#15 = DIRECTION ( 'NONE',  ( -3.491481338843133355E-15, 9.031770143711729009E-17, -1.000000000000000000 ) ) ;
#16 = AXIS2_PLACEMENT_3D ( 'NONE', #157, #220, #136 ) ;
#17 = ORGANIZATION ( 'UNSPECIFIED', 'UNSPECIFIED', '' ) ;
#18 = ORIENTED_EDGE ( 'NONE', *, *, #114, .F. ) ;
#19 = CC_DESIGN_PERSON_AND_ORGANIZATION_ASSIGNMENT ( #7, #74, ( #111 ) ) ;
#20 = SHAPE_DEFINITION_REPRESENTATION ( #126, #170 ) ;
#21 = MECHANICAL_CONTEXT ( 'NONE', #82, 'mechanical' ) ;
#22 = FACE_OUTER_BOUND ( 'NONE', #143, .T. ) ;
#23 = ORIENTED_EDGE ( 'NONE', *, *, #230, .F. ) ;
#24 = FACE_OUTER_BOUND ( 'NONE', #146, .T. ) ;
#25 = PERSON_AND_ORGANIZATION ( #193, #17 ) ;
#26 = CARTESIAN_POINT ( 'NONE',  ( 4.547180310199762426E-14, 6.607302088790605549E-15, 13.02364202727322606 ) ) ;
#27 = DIRECTION ( 'NONE',  ( 3.491481338843133355E-15, -9.031770143711729009E-17, 1.000000000000000000 ) ) ;
#28 = VERTEX_POINT ( 'NONE', #110 ) ;
#29 = FACE_OUTER_BOUND ( 'NONE', #51, .T. ) ;
#30 = SECURITY_CLASSIFICATION ( '', '', #98 ) ;
#31 = PRODUCT_RELATED_PRODUCT_CATEGORY ( 'detail', '', ( #86 ) ) ;
#32 = CALENDAR_DATE ( 2021, 26, 11 ) ;
#33 = CC_DESIGN_PERSON_AND_ORGANIZATION_ASSIGNMENT ( #216, #39, ( #86 ) ) ;
#34 = CC_DESIGN_SECURITY_CLASSIFICATION ( #30, ( #111 ) ) ;
#35 = ORIENTED_EDGE ( 'NONE', *, *, #118, .F. ) ;
#36 = COORDINATED_UNIVERSAL_TIME_OFFSET ( 1, 0, .AHEAD. ) ;
#37 = DIRECTION ( 'NONE',  ( 0.0000000000000000000, 1.000000000000000000, 0.0000000000000000000 ) ) ;
#38 = CARTESIAN_POINT ( 'NONE',  ( 4.547180310199762426E-14, 2.558999999999998387, 13.02364202727322606 ) ) ;
#39 = PERSON_AND_ORGANIZATION_ROLE ( 'design_owner' ) ;
#40 = FACE_OUTER_BOUND ( 'NONE', #171, .T. ) ;
#41 = ORIENTED_EDGE ( 'NONE', *, *, #14, .F. ) ;
#42 = CARTESIAN_POINT ( 'NONE',  ( 2.779219145719134403E-13, -7.189289034394536528E-15, 79.60000000000000853 ) ) ;
#43 = EDGE_CURVE ( 'NONE', #125, #125, #113, .T. ) ;
#44 = EDGE_LOOP ( 'NONE', ( #128 ) ) ;
#45 = FACE_OUTER_BOUND ( 'NONE', #105, .T. ) ;
#46 = CARTESIAN_POINT ( 'NONE',  ( 2.779219145719134403E-13, 1.999999999999988010, 79.60000000000000853 ) ) ;
#47 = CARTESIAN_POINT ( 'NONE',  ( 4.123780939571910759E-30, 5.992079609121851494E-31, 1.181097803300384590E-15 ) ) ;
#48 = AXIS2_PLACEMENT_3D ( 'NONE', #26, #137, #239 ) ;
#49 = PERSON_AND_ORGANIZATION_ROLE ( 'design_supplier' ) ;
#50 = CONICAL_SURFACE ( 'NONE', #201, 1.999999999999995337, 0.7853981633974516097 ) ;
#51 = EDGE_LOOP ( 'NONE', ( #13 ) ) ;
#52 = DIRECTION ( 'NONE',  ( 1.000000000000000000, 0.0000000000000000000, 0.0000000000000000000 ) ) ;
#53 = PLANE ( 'NONE',  #188 ) ;
#54 = FACE_OUTER_BOUND ( 'NONE', #116, .T. ) ;
#55 = CYLINDRICAL_SURFACE ( 'NONE', #187, 1.999999999999993561 ) ;
#56 = CIRCLE ( 'NONE', #225, 2.328059892324148006 ) ;
#57 =( GEOMETRIC_REPRESENTATION_CONTEXT ( 3 ) GLOBAL_UNCERTAINTY_ASSIGNED_CONTEXT ( ( #241 ) ) GLOBAL_UNIT_ASSIGNED_CONTEXT ( ( #186, #166, #92 ) ) REPRESENTATION_CONTEXT ( 'NONE', 'WORKASPACE' ) );
#58 = APPROVAL ( #181, 'UNSPECIFIED' ) ;
#59 = DIRECTION ( 'NONE',  ( -3.491481338843133355E-15, 9.031770143711729009E-17, -1.000000000000000000 ) ) ;
#60 = CALENDAR_DATE ( 2021, 26, 11 ) ;
#61 = CARTESIAN_POINT ( 'NONE',  ( 4.547180310199762426E-14, 6.607302088790604760E-15, 13.02364202727322606 ) ) ;
#62 = DATE_TIME_ROLE ( 'creation_date' ) ;
#63 = EDGE_LOOP ( 'NONE', ( #132 ) ) ;
#64 = CARTESIAN_POINT ( 'NONE',  ( 2.793185071074506684E-13, -7.225416114969383207E-15, 80.00000000000000000 ) ) ;
#65 = CONICAL_SURFACE ( 'NONE', #222, 2.558999999999999719, 0.5235987755982933756 ) ;
#66 = LOCAL_TIME ( 11, 3, 35.00000000000000000, #36 ) ;
#67 = VERTEX_POINT ( 'NONE', #127 ) ;
#68 = ORIENTED_EDGE ( 'NONE', *, *, #230, .T. ) ;
#69 = ORIENTED_EDGE ( 'NONE', *, *, #118, .T. ) ;
#70 = APPROVAL ( #161, 'UNSPECIFIED' ) ;
#71 = AXIS2_PLACEMENT_3D ( 'NONE', #47, #144, #131 ) ;
#72 = CIRCLE ( 'NONE', #93, 2.558999999999997943 ) ;
#73 = LOCAL_TIME ( 11, 3, 35.00000000000000000, #115 ) ;
#74 = PERSON_AND_ORGANIZATION_ROLE ( 'creator' ) ;
#75 = ORIENTED_EDGE ( 'NONE', *, *, #43, .T. ) ;
#76 = CARTESIAN_POINT ( 'NONE',  ( 4.547180310199761795E-14, -1.176265412243156079E-15, 13.02364202727322429 ) ) ;
#77 = FACE_OUTER_BOUND ( 'NONE', #63, .T. ) ;
#78 = COORDINATED_UNIVERSAL_TIME_OFFSET ( 1, 0, .AHEAD. ) ;
#79 = DATE_TIME_ROLE ( 'classification_date' ) ;
#80 = CARTESIAN_POINT ( 'NONE',  ( 0.0000000000000000000, 0.0000000000000000000, 0.0000000000000000000 ) ) ;
#81 = DIRECTION ( 'NONE',  ( 0.0000000000000000000, 1.000000000000000000, 0.0000000000000000000 ) ) ;
#82 = APPLICATION_CONTEXT ( 'configuration controlled 3d designs of mechanical parts and assemblies' ) ;
#83 = CLOSED_SHELL ( 'NONE', ( #208, #209, #217, #91 ) ) ;
#84 = APPLICATION_PROTOCOL_DEFINITION ( 'international standard', 'config_control_design', 1994, #82 ) ;
#85 = PLANE ( 'NONE',  #101 ) ;
#86 = PRODUCT ( '321415', '321415', '', ( #21 ) ) ;
#87 = DIRECTION ( 'NONE',  ( -3.153425691349006731E-31, -1.000000000000000000, -9.031770143711729009E-17 ) ) ;
#88 = APPROVAL_ROLE ( '' ) ;
#89 = VERTEX_POINT ( 'NONE', #46 ) ;
#90 = ORIENTED_EDGE ( 'NONE', *, *, #124, .T. ) ;
#91 = ADVANCED_FACE ( 'NONE', ( #22 ), #85, .T. ) ;
#92 =( NAMED_UNIT ( * ) SI_UNIT ( $, .STERADIAN. ) SOLID_ANGLE_UNIT ( ) );
#93 = AXIS2_PLACEMENT_3D ( 'NONE', #203, #120, #139 ) ;
#94 = MANIFOLD_SOLID_BREP ( 'Corps-Déplacer/Copier1[2]', #83 ) ;
#95 = ORIENTED_EDGE ( 'NONE', *, *, #43, .F. ) ;
#96 = APPROVAL_ROLE ( '' ) ;
#97 = EDGE_LOOP ( 'NONE', ( #90 ) ) ;
#98 = SECURITY_CLASSIFICATION_LEVEL ( 'unclassified' ) ;
#99 = CC_DESIGN_DATE_AND_TIME_ASSIGNMENT ( #4, #79, ( #30 ) ) ;
#100 = DATE_AND_TIME ( #3, #73 ) ;
#101 = AXIS2_PLACEMENT_3D ( 'NONE', #237, #235, #9 ) ;
#102 = DIRECTION ( 'NONE',  ( 0.0000000000000000000, 1.000000000000000000, 0.0000000000000000000 ) ) ;
#103 = PERSON_AND_ORGANIZATION_ROLE ( 'creator' ) ;
#104 = CYLINDRICAL_SURFACE ( 'NONE', #16, 2.558999999999994834 ) ;
#105 = EDGE_LOOP ( 'NONE', ( #18 ) ) ;
#106 = DIRECTION ( 'NONE',  ( 0.0000000000000000000, 1.000000000000000000, 0.0000000000000000000 ) ) ;
#107 = CARTESIAN_POINT ( 'NONE',  ( 4.885231259955590439E-14, -1.263712492114123682E-15, 13.99185842870425134 ) ) ;
#108 = APPROVAL_DATE_TIME ( #221, #58 ) ;
#109 = CARTESIAN_POINT ( 'NONE',  ( 1.396592535537253145E-15, 2.558999999999997943, 0.3999999999999999667 ) ) ;
#110 = CARTESIAN_POINT ( 'NONE',  ( 4.547180310199761795E-14, 2.558999999999998387, 13.02364202727322429 ) ) ;
#111 = PRODUCT_DEFINITION_FORMATION_WITH_SPECIFIED_SOURCE ( 'ANY', '', #86, .NOT_KNOWN. ) ;
#112 = EDGE_LOOP ( 'NONE', ( #75 ) ) ;
#113 = CIRCLE ( 'NONE', #130, 1.999999999999991784 ) ;
#114 = EDGE_CURVE ( 'NONE', #142, #142, #191, .T. ) ;
#115 = COORDINATED_UNIVERSAL_TIME_OFFSET ( 1, 0, .AHEAD. ) ;
#116 = EDGE_LOOP ( 'NONE', ( #23 ) ) ;
#117 = APPROVAL_DATE_TIME ( #229, #212 ) ;
#118 = EDGE_CURVE ( 'NONE', #28, #28, #147, .T. ) ;
#119 = DIRECTION ( 'NONE',  ( 0.0000000000000000000, 1.000000000000000000, 0.0000000000000000000 ) ) ;
#120 = DIRECTION ( 'NONE',  ( -3.491481338843133355E-15, -5.073313651399541334E-16, -1.000000000000000000 ) ) ;
#121 = FACE_OUTER_BOUND ( 'NONE', #44, .T. ) ;
#122 = DIRECTION ( 'NONE',  ( -1.771337993995961523E-30, 1.000000000000000000, -5.073313651399541334E-16 ) ) ;
#123 = DATE_AND_TIME ( #60, #148 ) ;
#124 = EDGE_CURVE ( 'NONE', #67, #67, #167, .T. ) ;
#125 = VERTEX_POINT ( 'NONE', #226 ) ;
#126 = PRODUCT_DEFINITION_SHAPE ( 'NONE', 'NONE',  #162 ) ;
#127 = CARTESIAN_POINT ( 'NONE',  ( 4.547180310199761795E-14, 2.558999999999998387, 13.02364202727322429 ) ) ;
#128 = ORIENTED_EDGE ( 'NONE', *, *, #124, .F. ) ;
#129 = FACE_BOUND ( 'NONE', #195, .T. ) ;
#130 = AXIS2_PLACEMENT_3D ( 'NONE', #107, #134, #81 ) ;
#131 = DIRECTION ( 'NONE',  ( 1.771337993995961523E-30, -1.000000000000000000, 5.073313651399541334E-16 ) ) ;
#132 = ORIENTED_EDGE ( 'NONE', *, *, #172, .F. ) ;
#133 = DIRECTION ( 'NONE',  ( 3.153425691349006731E-31, 1.000000000000000000, 9.031770143711729009E-17 ) ) ;
#134 = DIRECTION ( 'NONE',  ( -3.491481338843133355E-15, 9.031770143711729009E-17, -1.000000000000000000 ) ) ;
#135 = DIRECTION ( 'NONE',  ( 0.0000000000000000000, 0.0000000000000000000, 1.000000000000000000 ) ) ;
#136 = DIRECTION ( 'NONE',  ( -1.771337993995961523E-30, 1.000000000000000000, -5.073313651399541334E-16 ) ) ;
#137 = DIRECTION ( 'NONE',  ( -3.491481338843133355E-15, -5.073313651399541334E-16, -1.000000000000000000 ) ) ;
#138 = PERSON_AND_ORGANIZATION ( #193, #17 ) ;
#139 = DIRECTION ( 'NONE',  ( -1.806264895087678621E-30, 1.000000000000000000, -5.084183692780798430E-16 ) ) ;
#140 = CALENDAR_DATE ( 2021, 26, 11 ) ;
#141 = CC_DESIGN_PERSON_AND_ORGANIZATION_ASSIGNMENT ( #228, #49, ( #111 ) ) ;
#142 = VERTEX_POINT ( 'NONE', #204 ) ;
#143 = EDGE_LOOP ( 'NONE', ( #149 ) ) ;
#144 = DIRECTION ( 'NONE',  ( 3.491481338843133355E-15, 5.073313651399541334E-16, 1.000000000000000000 ) ) ;
#145 = DESIGN_CONTEXT ( 'detailed design', #210, 'design' ) ;
#146 = EDGE_LOOP ( 'NONE', ( #95 ) ) ;
#147 = CIRCLE ( 'NONE', #169, 2.558999999999999719 ) ;
#148 = LOCAL_TIME ( 11, 3, 35.00000000000000000, #198 ) ;
#149 = ORIENTED_EDGE ( 'NONE', *, *, #14, .T. ) ;
#150 = CONICAL_SURFACE ( 'NONE', #71, 2.328059892324148006, 0.5235987755982978165 ) ;
#151 = PERSON_AND_ORGANIZATION ( #193, #17 ) ;
#152 = PERSON_AND_ORGANIZATION ( #193, #17 ) ;
#153 = AXIS2_PLACEMENT_3D ( 'NONE', #64, #27, #87 ) ;
#154 = FACE_BOUND ( 'NONE', #112, .T. ) ;
#155 = FACE_OUTER_BOUND ( 'NONE', #231, .T. ) ;
#156 = ADVANCED_FACE ( 'NONE', ( #214 ), #53, .T. ) ;
#157 = CARTESIAN_POINT ( 'NONE',  ( 0.0000000000000000000, 0.0000000000000000000, 0.0000000000000000000 ) ) ;
#158 = APPLICATION_PROTOCOL_DEFINITION ( 'international standard', 'config_control_design', 1994, #210 ) ;
#159 = CC_DESIGN_APPROVAL ( #212, ( #30 ) ) ;
#160 = DIRECTION ( 'NONE',  ( -3.491481338843133355E-15, 9.031770143711729009E-17, -1.000000000000000000 ) ) ;
#161 = APPROVAL_STATUS ( 'not_yet_approved' ) ;
#162 = PRODUCT_DEFINITION ( 'UNKNOWN', '', #111, #145 ) ;
#163 = CARTESIAN_POINT ( 'NONE',  ( 2.793185071074506684E-13, -7.225416114969383207E-15, 80.00000000000000000 ) ) ;
#164 = PERSON_AND_ORGANIZATION ( #193, #17 ) ;
#165 = DIRECTION ( 'NONE',  ( 0.0000000000000000000, 1.000000000000000000, 0.0000000000000000000 ) ) ;
#166 =( NAMED_UNIT ( * ) PLANE_ANGLE_UNIT ( ) SI_UNIT ( $, .RADIAN. ) );
#167 = CIRCLE ( 'NONE', #48, 2.558999999999991726 ) ;
#168 = ADVANCED_FACE ( 'NONE', ( #219, #54 ), #50, .T. ) ;
#169 = AXIS2_PLACEMENT_3D ( 'NONE', #76, #8, #102 ) ;
#170 = ADVANCED_BREP_SHAPE_REPRESENTATION ( '321415', ( #173, #94, #189 ), #57 ) ;
#171 = EDGE_LOOP ( 'NONE', ( #68 ) ) ;
#172 = EDGE_CURVE ( 'NONE', #206, #206, #72, .T. ) ;
#173 = MANIFOLD_SOLID_BREP ( 'Corps-Déplacer/Copier1[1]', #182 ) ;
#174 = COORDINATED_UNIVERSAL_TIME_OFFSET ( 1, 0, .AHEAD. ) ;
#175 = LOCAL_TIME ( 11, 3, 35.00000000000000000, #174 ) ;
#176 = APPROVAL_DATE_TIME ( #100, #70 ) ;
#177 = DIRECTION ( 'NONE',  ( -3.491481338843133355E-15, 9.031770143711729009E-17, -1.000000000000000000 ) ) ;
#178 = ADVANCED_FACE ( 'NONE', ( #154, #155 ), #65, .T. ) ;
#179 = CALENDAR_DATE ( 2021, 26, 11 ) ;
#180 = CARTESIAN_POINT ( 'NONE',  ( 0.0000000000000000000, 0.0000000000000000000, 0.0000000000000000000 ) ) ;
#181 = APPROVAL_STATUS ( 'not_yet_approved' ) ;
#182 = CLOSED_SHELL ( 'NONE', ( #227, #168, #205, #178, #156 ) ) ;
#183 = LOCAL_TIME ( 11, 3, 35.00000000000000000, #78 ) ;
#184 = DIRECTION ( 'NONE',  ( -3.491481338843133355E-15, 9.031770143711729009E-17, -1.000000000000000000 ) ) ;
#185 = DIRECTION ( 'NONE',  ( 3.153425691349006731E-31, 1.000000000000000000, 9.031770143711729009E-17 ) ) ;
#186 =( LENGTH_UNIT ( ) NAMED_UNIT ( * ) SI_UNIT ( .MILLI., .METRE. ) );
#187 = AXIS2_PLACEMENT_3D ( 'NONE', #80, #184, #133 ) ;
#188 = AXIS2_PLACEMENT_3D ( 'NONE', #38, #160, #185 ) ;
#189 = AXIS2_PLACEMENT_3D ( 'NONE', #180, #135, #52 ) ;
#190 = CARTESIAN_POINT ( 'NONE',  ( 0.0000000000000000000, 2.328059892324148006, 0.0000000000000000000 ) ) ;
#191 = CIRCLE ( 'NONE', #10, 1.599999999999994982 ) ;
#192 = ORIENTED_EDGE ( 'NONE', *, *, #114, .T. ) ;
#193 = PERSON ( 'UNSPECIFIED', 'UNSPECIFIED', 'UNSPECIFIED', ('UNSPECIFIED'), ('UNSPECIFIED'), ('UNSPECIFIED') ) ;
#194 = DIRECTION ( 'NONE',  ( -3.491481338843133355E-15, -5.073313651399541334E-16, -1.000000000000000000 ) ) ;
#195 = EDGE_LOOP ( 'NONE', ( #41 ) ) ;
#196 = APPROVAL_PERSON_ORGANIZATION ( #152, #212, #96 ) ;
#197 = FACE_OUTER_BOUND ( 'NONE', #97, .T. ) ;
#198 = COORDINATED_UNIVERSAL_TIME_OFFSET ( 1, 0, .AHEAD. ) ;
#199 = CC_DESIGN_DATE_AND_TIME_ASSIGNMENT ( #123, #62, ( #162 ) ) ;
#200 = DIRECTION ( 'NONE',  ( -3.491481338843133355E-15, 9.031770143711729009E-17, -1.000000000000000000 ) ) ;
#201 = AXIS2_PLACEMENT_3D ( 'NONE', #42, #177, #119 ) ;
#202 = CC_DESIGN_APPROVAL ( #70, ( #162 ) ) ;
#203 = CARTESIAN_POINT ( 'NONE',  ( 1.396592535537257681E-15, 2.029325460559823091E-16, 0.4000000000000012434 ) ) ;
#204 = CARTESIAN_POINT ( 'NONE',  ( 2.793185071074506684E-13, 1.599999999999987876, 80.00000000000000000 ) ) ;
#205 = ADVANCED_FACE ( 'NONE', ( #40, #24 ), #55, .T. ) ;
#206 = VERTEX_POINT ( 'NONE', #109 ) ;
#207 = PLANE ( 'NONE',  #153 ) ;
#208 = ADVANCED_FACE ( 'NONE', ( #121 ), #11, .T. ) ;
#209 = ADVANCED_FACE ( 'NONE', ( #197, #77 ), #104, .T. ) ;
#210 = APPLICATION_CONTEXT ( 'configuration controlled 3d designs of mechanical parts and assemblies' ) ;
#211 = PERSON_AND_ORGANIZATION_ROLE ( 'classification_officer' ) ;
#212 = APPROVAL ( #233, 'UNSPECIFIED' ) ;
#213 = DIRECTION ( 'NONE',  ( 3.491481338843133355E-15, 5.073313651399541334E-16, 1.000000000000000000 ) ) ;
#214 = FACE_OUTER_BOUND ( 'NONE', #2, .T. ) ;
#215 = AXIS2_PLACEMENT_3D ( 'NONE', #223, #15, #165 ) ;
#216 = PERSON_AND_ORGANIZATION ( #193, #17 ) ;
#217 = ADVANCED_FACE ( 'NONE', ( #29, #129 ), #150, .T. ) ;
#218 = CARTESIAN_POINT ( 'NONE',  ( 4.123780939571910759E-30, 5.992079609121851494E-31, 1.181097803300384590E-15 ) ) ;
#219 = FACE_BOUND ( 'NONE', #1, .T. ) ;
#220 = DIRECTION ( 'NONE',  ( -3.491481338843133355E-15, -5.073313651399541334E-16, -1.000000000000000000 ) ) ;
#221 = DATE_AND_TIME ( #140, #183 ) ;
#222 = AXIS2_PLACEMENT_3D ( 'NONE', #234, #200, #106 ) ;
#223 = CARTESIAN_POINT ( 'NONE',  ( 2.779219145719134403E-13, -7.189289034394536528E-15, 79.60000000000000853 ) ) ;
#224 = VERTEX_POINT ( 'NONE', #190 ) ;
#225 = AXIS2_PLACEMENT_3D ( 'NONE', #218, #194, #122 ) ;
#226 = CARTESIAN_POINT ( 'NONE',  ( 4.885231259955590439E-14, 1.999999999999990452, 13.99185842870425134 ) ) ;
#227 = ADVANCED_FACE ( 'NONE', ( #45 ), #207, .T. ) ;
#228 = PERSON_AND_ORGANIZATION ( #193, #17 ) ;
#229 = DATE_AND_TIME ( #32, #66 ) ;
#230 = EDGE_CURVE ( 'NONE', #89, #89, #5, .T. ) ;
#231 = EDGE_LOOP ( 'NONE', ( #35 ) ) ;
#232 = AXIS2_PLACEMENT_3D ( 'NONE', #61, #213, #6 ) ;
#233 = APPROVAL_STATUS ( 'not_yet_approved' ) ;
#234 = CARTESIAN_POINT ( 'NONE',  ( 4.547180310199761795E-14, -1.176265412243156079E-15, 13.02364202727322429 ) ) ;
#235 = DIRECTION ( 'NONE',  ( -3.491481338843133355E-15, -5.073313651399541334E-16, -1.000000000000000000 ) ) ;
#236 = CC_DESIGN_APPROVAL ( #58, ( #111 ) ) ;
#237 = CARTESIAN_POINT ( 'NONE',  ( -2.061890469785955379E-30, 2.328059892324148006, -5.905489016501922948E-16 ) ) ;
#238 = APPROVAL_ROLE ( '' ) ;
#239 = DIRECTION ( 'NONE',  ( -2.408353193450244000E-30, 1.000000000000000000, -6.778911590374414342E-16 ) ) ;
#240 = APPROVAL_PERSON_ORGANIZATION ( #25, #70, #238 ) ;
#241 = UNCERTAINTY_MEASURE_WITH_UNIT (LENGTH_MEASURE( 1.000000000000000082E-05 ), #186, 'distance_accuracy_value', 'NONE');
#242 = CC_DESIGN_PERSON_AND_ORGANIZATION_ASSIGNMENT ( #164, #103, ( #162 ) ) ;
#243 = APPROVAL_PERSON_ORGANIZATION ( #138, #58, #88 ) ;
ENDSEC;
END-ISO-10303-21;
