ISO-10303-21;
HEADER;
FILE_DESCRIPTION (( 'STEP AP203' ),
    '1' );
FILE_NAME ('321414.step',
    '2021-11-26T10:03:34',
    ( '' ),
    ( '' ),
    'SwSTEP 2.0',
    'SolidWorks 2019',
    '' );
FILE_SCHEMA (( 'CONFIG_CONTROL_DESIGN' ));
ENDSEC;

DATA;
#1 = DIRECTION ( 'NONE',  ( -3.491481338843133355E-15, 9.031770143711729009E-17, -1.000000000000000000 ) ) ;
#2 = COORDINATED_UNIVERSAL_TIME_OFFSET ( 1, 0, .AHEAD. ) ;
#3 = DIRECTION ( 'NONE',  ( 3.153425691349006731E-31, 1.000000000000000000, 9.031770143711729009E-17 ) ) ;
#4 = CC_DESIGN_APPROVAL ( #173, ( #188 ) ) ;
#5 = EDGE_CURVE ( 'NONE', #233, #233, #143, .T. ) ;
#6 = PERSON_AND_ORGANIZATION ( #190, #102 ) ;
#7 = DIRECTION ( 'NONE',  ( 0.0000000000000000000, 1.000000000000000000, 0.0000000000000000000 ) ) ;
#8 = PERSON_AND_ORGANIZATION ( #190, #102 ) ;
#9 = COORDINATED_UNIVERSAL_TIME_OFFSET ( 1, 0, .AHEAD. ) ;
#10 = DIRECTION ( 'NONE',  ( -3.491481338843133355E-15, 9.031770143711729009E-17, -1.000000000000000000 ) ) ;
#11 = MANIFOLD_SOLID_BREP ( 'Corps-Déplacer/Copier1[1]', #212 ) ;
#12 = DIRECTION ( 'NONE',  ( -3.491481338843133355E-15, 9.031770143711729009E-17, -1.000000000000000000 ) ) ;
#13 = SHAPE_DEFINITION_REPRESENTATION ( #225, #105 ) ;
#14 = EDGE_LOOP ( 'NONE', ( #33 ) ) ;
#15 = CC_DESIGN_PERSON_AND_ORGANIZATION_ASSIGNMENT ( #8, #91, ( #70 ) ) ;
#16 = AXIS2_PLACEMENT_3D ( 'NONE', #122, #38, #231 ) ;
#17 = AXIS2_PLACEMENT_3D ( 'NONE', #40, #1, #3 ) ;
#18 = FACE_BOUND ( 'NONE', #240, .T. ) ;
#19 = APPROVAL_DATE_TIME ( #180, #137 ) ;
#20 = DIRECTION ( 'NONE',  ( -3.491481338843133355E-15, 9.031770143711729009E-17, -1.000000000000000000 ) ) ;
#21 = COORDINATED_UNIVERSAL_TIME_OFFSET ( 1, 0, .AHEAD. ) ;
#22 = FACE_BOUND ( 'NONE', #222, .T. ) ;
#23 = APPLICATION_PROTOCOL_DEFINITION ( 'international standard', 'config_control_design', 1994, #37 ) ;
#24 = CARTESIAN_POINT ( 'NONE',  ( 4.550204021736039299E-14, -1.177047586481715572E-15, 13.03230228131106827 ) ) ;
#25 = DIRECTION ( 'NONE',  ( -3.491481338843133355E-15, 9.031770143711729009E-17, -1.000000000000000000 ) ) ;
#26 = PLANE ( 'NONE',  #17 ) ;
#27 = DATE_AND_TIME ( #31, #121 ) ;
#28 = DIRECTION ( 'NONE',  ( 0.0000000000000000000, 1.000000000000000000, 0.0000000000000000000 ) ) ;
#29 = VERTEX_POINT ( 'NONE', #56 ) ;
#30 = EDGE_LOOP ( 'NONE', ( #95 ) ) ;
#31 = CALENDAR_DATE ( 2021, 26, 11 ) ;
#32 = VERTEX_POINT ( 'NONE', #192 ) ;
#33 = ORIENTED_EDGE ( 'NONE', *, *, #141, .F. ) ;
#34 = CC_DESIGN_PERSON_AND_ORGANIZATION_ASSIGNMENT ( #216, #185, ( #188 ) ) ;
#35 = AXIS2_PLACEMENT_3D ( 'NONE', #104, #165, #160 ) ;
#36 = AXIS2_PLACEMENT_3D ( 'NONE', #170, #20, #184 ) ;
#37 = APPLICATION_CONTEXT ( 'configuration controlled 3d designs of mechanical parts and assemblies' ) ;
#38 = DIRECTION ( 'NONE',  ( -3.491481338843133355E-15, -5.068314711964053081E-16, -1.000000000000000000 ) ) ;
#39 = CALENDAR_DATE ( 2021, 26, 11 ) ;
#40 = CARTESIAN_POINT ( 'NONE',  ( 4.550204021736038668E-14, 2.553999999999998050, 13.03230228131106649 ) ) ;
#41 = PERSON_AND_ORGANIZATION ( #190, #102 ) ;
#42 = CARTESIAN_POINT ( 'NONE',  ( 2.793185071074506684E-13, 1.599999999999987876, 80.00000000000000000 ) ) ;
#43 = AXIS2_PLACEMENT_3D ( 'NONE', #101, #177, #111 ) ;
#44 = EDGE_CURVE ( 'NONE', #215, #215, #117, .T. ) ;
#45 = FACE_OUTER_BOUND ( 'NONE', #172, .T. ) ;
#46 = DATE_AND_TIME ( #93, #223 ) ;
#47 = ORIENTED_EDGE ( 'NONE', *, *, #175, .T. ) ;
#48 = CALENDAR_DATE ( 2021, 26, 11 ) ;
#49 = ORIENTED_EDGE ( 'NONE', *, *, #68, .T. ) ;
#50 = AXIS2_PLACEMENT_3D ( 'NONE', #187, #12, #28 ) ;
#51 = AXIS2_PLACEMENT_3D ( 'NONE', #169, #214, #114 ) ;
#52 = EDGE_LOOP ( 'NONE', ( #71 ) ) ;
#53 = ADVANCED_FACE ( 'NONE', ( #112, #161 ), #164, .T. ) ;
#54 = PERSON_AND_ORGANIZATION ( #190, #102 ) ;
#55 = EDGE_LOOP ( 'NONE', ( #174 ) ) ;
#56 = CARTESIAN_POINT ( 'NONE',  ( 4.550204021736039299E-14, 2.553999999999998050, 13.03230228131106827 ) ) ;
#57 = APPROVAL_ROLE ( '' ) ;
#58 = AXIS2_PLACEMENT_3D ( 'NONE', #211, #124, #61 ) ;
#59 = DIRECTION ( 'NONE',  ( 3.491481338843133355E-15, -9.031770143711729009E-17, 1.000000000000000000 ) ) ;
#60 = APPROVAL ( #66, 'UNSPECIFIED' ) ;
#61 = DIRECTION ( 'NONE',  ( 0.0000000000000000000, 1.000000000000000000, 0.0000000000000000000 ) ) ;
#62 = CIRCLE ( 'NONE', #43, 2.553999999999997605 ) ;
#63 = CONICAL_SURFACE ( 'NONE', #35, 2.323059892324147668, 0.5235987755982978165 ) ;
#64 = DIRECTION ( 'NONE',  ( 1.000000000000000000, 0.0000000000000000000, 0.0000000000000000000 ) ) ;
#65 = CYLINDRICAL_SURFACE ( 'NONE', #182, 2.553999999999994497 ) ;
#66 = APPROVAL_STATUS ( 'not_yet_approved' ) ;
#67 = FACE_OUTER_BOUND ( 'NONE', #201, .T. ) ;
#68 = EDGE_CURVE ( 'NONE', #197, #197, #62, .T. ) ;
#69 = CYLINDRICAL_SURFACE ( 'NONE', #36, 1.999999999999993561 ) ;
#70 = PRODUCT_DEFINITION_FORMATION_WITH_SPECIFIED_SOURCE ( 'ANY', '', #152, .NOT_KNOWN. ) ;
#71 = ORIENTED_EDGE ( 'NONE', *, *, #44, .F. ) ;
#72 = VERTEX_POINT ( 'NONE', #79 ) ;
#73 = DIRECTION ( 'NONE',  ( 0.0000000000000000000, 1.000000000000000000, 0.0000000000000000000 ) ) ;
#74 = CIRCLE ( 'NONE', #227, 2.553999999999999382 ) ;
#75 = EDGE_CURVE ( 'NONE', #32, #32, #83, .T. ) ;
#76 = APPROVAL_STATUS ( 'not_yet_approved' ) ;
#77 = CLOSED_SHELL ( 'NONE', ( #183, #207, #203, #120 ) ) ;
#78 = CC_DESIGN_SECURITY_CLASSIFICATION ( #188, ( #70 ) ) ;
#79 = CARTESIAN_POINT ( 'NONE',  ( 4.550204021736039299E-14, 2.553999999999998050, 13.03230228131106827 ) ) ;
#80 = UNCERTAINTY_MEASURE_WITH_UNIT (LENGTH_MEASURE( 1.000000000000000082E-05 ), #142, 'distance_accuracy_value', 'NONE');
#81 = VERTEX_POINT ( 'NONE', #139 ) ;
#82 =( NAMED_UNIT ( * ) PLANE_ANGLE_UNIT ( ) SI_UNIT ( $, .RADIAN. ) );
#83 = CIRCLE ( 'NONE', #84, 2.323059892324147668 ) ;
#84 = AXIS2_PLACEMENT_3D ( 'NONE', #88, #144, #178 ) ;
#85 = CC_DESIGN_PERSON_AND_ORGANIZATION_ASSIGNMENT ( #6, #221, ( #152 ) ) ;
#86 = FACE_OUTER_BOUND ( 'NONE', #224, .T. ) ;
#87 = APPROVAL_ROLE ( '' ) ;
#88 = CARTESIAN_POINT ( 'NONE',  ( 4.110869649685817079E-30, 5.967433047020856858E-31, 1.177399862904010761E-15 ) ) ;
#89 = CIRCLE ( 'NONE', #58, 1.999999999999995337 ) ;
#90 = DIRECTION ( 'NONE',  ( -1.769592623620660654E-30, 1.000000000000000000, -5.068314711964053081E-16 ) ) ;
#91 = PERSON_AND_ORGANIZATION_ROLE ( 'design_supplier' ) ;
#92 = FACE_OUTER_BOUND ( 'NONE', #138, .T. ) ;
#93 = CALENDAR_DATE ( 2021, 26, 11 ) ;
#94 = PLANE ( 'NONE',  #218 ) ;
#95 = ORIENTED_EDGE ( 'NONE', *, *, #44, .T. ) ;
#96 = ORIENTED_EDGE ( 'NONE', *, *, #100, .T. ) ;
#97 = EDGE_LOOP ( 'NONE', ( #220 ) ) ;
#98 = DIRECTION ( 'NONE',  ( -3.491481338843133355E-15, 9.031770143711729009E-17, -1.000000000000000000 ) ) ;
#99 = AXIS2_PLACEMENT_3D ( 'NONE', #234, #130, #64 ) ;
#100 = EDGE_CURVE ( 'NONE', #81, #81, #89, .T. ) ;
#101 = CARTESIAN_POINT ( 'NONE',  ( 1.396592535537257681E-15, 2.027325884785627445E-16, 0.4000000000000012434 ) ) ;
#102 = ORGANIZATION ( 'UNSPECIFIED', 'UNSPECIFIED', '' ) ;
#103 = APPLICATION_CONTEXT ( 'configuration controlled 3d designs of mechanical parts and assemblies' ) ;
#104 = CARTESIAN_POINT ( 'NONE',  ( 4.110869649685817079E-30, 5.967433047020856858E-31, 1.177399862904010761E-15 ) ) ;
#105 = ADVANCED_BREP_SHAPE_REPRESENTATION ( '321414', ( #11, #179, #99 ), #198 ) ;
#106 = PERSON_AND_ORGANIZATION_ROLE ( 'creator' ) ;
#107 = CARTESIAN_POINT ( 'NONE',  ( 4.550204021736039299E-14, -1.177047586481715572E-15, 13.03230228131106827 ) ) ;
#108 = DATE_AND_TIME ( #39, #237 ) ;
#109 = FACE_OUTER_BOUND ( 'NONE', #97, .T. ) ;
#110 = PERSON_AND_ORGANIZATION_ROLE ( 'creator' ) ;
#111 = DIRECTION ( 'NONE',  ( -1.734392667224215668E-30, 1.000000000000000000, -5.094137067277237628E-16 ) ) ;
#112 = FACE_BOUND ( 'NONE', #30, .T. ) ;
#113 = PERSON_AND_ORGANIZATION ( #190, #102 ) ;
#114 = DIRECTION ( 'NONE',  ( 1.769592623620660304E-30, -1.000000000000000000, 5.068314711964053081E-16 ) ) ;
#115 = MECHANICAL_CONTEXT ( 'NONE', #103, 'mechanical' ) ;
#116 = ADVANCED_FACE ( 'NONE', ( #195, #67 ), #69, .T. ) ;
#117 = CIRCLE ( 'NONE', #136, 1.599999999999994982 ) ;
#118 = ORIENTED_EDGE ( 'NONE', *, *, #68, .F. ) ;
#119 = CARTESIAN_POINT ( 'NONE',  ( 2.779219145719134403E-13, -7.189289034394536528E-15, 79.60000000000000853 ) ) ;
#120 = ADVANCED_FACE ( 'NONE', ( #45 ), #181, .T. ) ;
#121 = LOCAL_TIME ( 11, 3, 34.00000000000000000, #202 ) ;
#122 = CARTESIAN_POINT ( 'NONE',  ( 4.550204021736039930E-14, 6.605180938313158616E-15, 13.03230228131107005 ) ) ;
#123 = CONICAL_SURFACE ( 'NONE', #166, 2.553999999999999382, 0.5235987755982934866 ) ;
#124 = DIRECTION ( 'NONE',  ( -3.491481338843133355E-15, 9.031770143711729009E-17, -1.000000000000000000 ) ) ;
#125 =( NAMED_UNIT ( * ) SI_UNIT ( $, .STERADIAN. ) SOLID_ANGLE_UNIT ( ) );
#126 = DIRECTION ( 'NONE',  ( -3.491481338843133355E-15, -5.068314711964053081E-16, -1.000000000000000000 ) ) ;
#127 = APPROVAL_DATE_TIME ( #108, #60 ) ;
#128 = PLANE ( 'NONE',  #51 ) ;
#129 = CC_DESIGN_APPROVAL ( #60, ( #70 ) ) ;
#130 = DIRECTION ( 'NONE',  ( 0.0000000000000000000, 0.0000000000000000000, 1.000000000000000000 ) ) ;
#131 = DIRECTION ( 'NONE',  ( -3.491481338843133355E-15, 9.031770143711729009E-17, -1.000000000000000000 ) ) ;
#132 = PERSON_AND_ORGANIZATION ( #190, #102 ) ;
#133 = ADVANCED_FACE ( 'NONE', ( #22, #167 ), #123, .T. ) ;
#134 = EDGE_LOOP ( 'NONE', ( #135 ) ) ;
#135 = ORIENTED_EDGE ( 'NONE', *, *, #175, .F. ) ;
#136 = AXIS2_PLACEMENT_3D ( 'NONE', #241, #25, #73 ) ;
#137 = APPROVAL ( #219, 'UNSPECIFIED' ) ;
#138 = EDGE_LOOP ( 'NONE', ( #47 ) ) ;
#139 = CARTESIAN_POINT ( 'NONE',  ( 2.779219145719134403E-13, 1.999999999999988010, 79.60000000000000853 ) ) ;
#140 = APPROVAL_PERSON_ORGANIZATION ( #54, #173, #57 ) ;
#141 = EDGE_CURVE ( 'NONE', #72, #72, #74, .T. ) ;
#142 =( LENGTH_UNIT ( ) NAMED_UNIT ( * ) SI_UNIT ( .MILLI., .METRE. ) );
#143 = CIRCLE ( 'NONE', #50, 1.999999999999991784 ) ;
#144 = DIRECTION ( 'NONE',  ( -3.491481338843133355E-15, -5.068314711964053081E-16, -1.000000000000000000 ) ) ;
#145 = CARTESIAN_POINT ( 'NONE',  ( 4.885231259955590439E-14, 1.999999999999990452, 13.99185842870425134 ) ) ;
#146 = AXIS2_PLACEMENT_3D ( 'NONE', #119, #98, #243 ) ;
#147 = DATE_AND_TIME ( #232, #191 ) ;
#148 = CARTESIAN_POINT ( 'NONE',  ( 0.0000000000000000000, 0.0000000000000000000, 0.0000000000000000000 ) ) ;
#149 = CC_DESIGN_PERSON_AND_ORGANIZATION_ASSIGNMENT ( #113, #106, ( #228 ) ) ;
#150 = PERSON_AND_ORGANIZATION ( #190, #102 ) ;
#151 = DIRECTION ( 'NONE',  ( -3.491481338843133355E-15, -5.068314711964053081E-16, -1.000000000000000000 ) ) ;
#152 = PRODUCT ( '321414', '321414', '', ( #115 ) ) ;
#153 = FACE_OUTER_BOUND ( 'NONE', #134, .T. ) ;
#154 = ORIENTED_EDGE ( 'NONE', *, *, #5, .F. ) ;
#155 = ORIENTED_EDGE ( 'NONE', *, *, #5, .T. ) ;
#156 = CC_DESIGN_DATE_AND_TIME_ASSIGNMENT ( #46, #157, ( #188 ) ) ;
#157 = DATE_TIME_ROLE ( 'classification_date' ) ;
#158 = AXIS2_PLACEMENT_3D ( 'NONE', #196, #151, #199 ) ;
#159 = CC_DESIGN_APPROVAL ( #137, ( #228 ) ) ;
#160 = DIRECTION ( 'NONE',  ( 1.769592623620661004E-30, -1.000000000000000000, 5.068314711964053081E-16 ) ) ;
#161 = FACE_OUTER_BOUND ( 'NONE', #55, .T. ) ;
#162 = ADVANCED_FACE ( 'NONE', ( #109 ), #26, .T. ) ;
#163 = COORDINATED_UNIVERSAL_TIME_OFFSET ( 1, 0, .AHEAD. ) ;
#164 = CONICAL_SURFACE ( 'NONE', #146, 1.999999999999995337, 0.7853981633974516097 ) ;
#165 = DIRECTION ( 'NONE',  ( 3.491481338843133355E-15, 5.068314711964053081E-16, 1.000000000000000000 ) ) ;
#166 = AXIS2_PLACEMENT_3D ( 'NONE', #107, #131, #7 ) ;
#167 = FACE_OUTER_BOUND ( 'NONE', #14, .T. ) ;
#168 = SECURITY_CLASSIFICATION_LEVEL ( 'unclassified' ) ;
#169 = CARTESIAN_POINT ( 'NONE',  ( 4.550204021736038668E-14, 6.605180938313157038E-15, 13.03230228131106649 ) ) ;
#170 = CARTESIAN_POINT ( 'NONE',  ( 0.0000000000000000000, 0.0000000000000000000, 0.0000000000000000000 ) ) ;
#171 = ORIENTED_EDGE ( 'NONE', *, *, #75, .T. ) ;
#172 = EDGE_LOOP ( 'NONE', ( #171 ) ) ;
#173 = APPROVAL ( #76, 'UNSPECIFIED' ) ;
#174 = ORIENTED_EDGE ( 'NONE', *, *, #100, .F. ) ;
#175 = EDGE_CURVE ( 'NONE', #29, #29, #226, .T. ) ;
#176 = PRODUCT_RELATED_PRODUCT_CATEGORY ( 'detail', '', ( #152 ) ) ;
#177 = DIRECTION ( 'NONE',  ( -3.491481338843133355E-15, -5.068314711964053081E-16, -1.000000000000000000 ) ) ;
#178 = DIRECTION ( 'NONE',  ( -1.769592623620660654E-30, 1.000000000000000000, -5.068314711964053081E-16 ) ) ;
#179 = MANIFOLD_SOLID_BREP ( 'Corps-Déplacer/Copier1[2]', #77 ) ;
#180 = DATE_AND_TIME ( #48, #230 ) ;
#181 = PLANE ( 'NONE',  #158 ) ;
#182 = AXIS2_PLACEMENT_3D ( 'NONE', #148, #126, #90 ) ;
#183 = ADVANCED_FACE ( 'NONE', ( #153 ), #128, .T. ) ;
#184 = DIRECTION ( 'NONE',  ( 3.153425691349006731E-31, 1.000000000000000000, 9.031770143711729009E-17 ) ) ;
#185 = PERSON_AND_ORGANIZATION_ROLE ( 'classification_officer' ) ;
#186 = CARTESIAN_POINT ( 'NONE',  ( 2.793185071074506684E-13, -7.225416114969383207E-15, 80.00000000000000000 ) ) ;
#187 = CARTESIAN_POINT ( 'NONE',  ( 4.885231259955590439E-14, -1.263712492114123682E-15, 13.99185842870425134 ) ) ;
#188 = SECURITY_CLASSIFICATION ( '', '', #168 ) ;
#189 = EDGE_LOOP ( 'NONE', ( #118 ) ) ;
#190 = PERSON ( 'UNSPECIFIED', 'UNSPECIFIED', 'UNSPECIFIED', ('UNSPECIFIED'), ('UNSPECIFIED'), ('UNSPECIFIED') ) ;
#191 = LOCAL_TIME ( 11, 3, 34.00000000000000000, #2 ) ;
#192 = CARTESIAN_POINT ( 'NONE',  ( -6.842277657836020854E-46, 2.323059892324147668, 0.0000000000000000000 ) ) ;
#193 = DIRECTION ( 'NONE',  ( -3.153425691349006731E-31, -1.000000000000000000, -9.031770143711729009E-17 ) ) ;
#194 = ADVANCED_FACE ( 'NONE', ( #217 ), #94, .T. ) ;
#195 = FACE_OUTER_BOUND ( 'NONE', #238, .T. ) ;
#196 = CARTESIAN_POINT ( 'NONE',  ( -2.055434824842908539E-30, 2.323059892324147668, -5.886999314520053806E-16 ) ) ;
#197 = VERTEX_POINT ( 'NONE', #213 ) ;
#198 =( GEOMETRIC_REPRESENTATION_CONTEXT ( 3 ) GLOBAL_UNCERTAINTY_ASSIGNED_CONTEXT ( ( #80 ) ) GLOBAL_UNIT_ASSIGNED_CONTEXT ( ( #142, #82, #125 ) ) REPRESENTATION_CONTEXT ( 'NONE', 'WORKASPACE' ) );
#199 = DIRECTION ( 'NONE',  ( -1.769592623620660304E-30, 1.000000000000000000, -5.068314711964053081E-16 ) ) ;
#200 = APPROVAL_ROLE ( '' ) ;
#201 = EDGE_LOOP ( 'NONE', ( #154 ) ) ;
#202 = COORDINATED_UNIVERSAL_TIME_OFFSET ( 1, 0, .AHEAD. ) ;
#203 = ADVANCED_FACE ( 'NONE', ( #86, #18 ), #63, .T. ) ;
#204 = APPROVAL_DATE_TIME ( #27, #173 ) ;
#205 = ORIENTED_EDGE ( 'NONE', *, *, #75, .F. ) ;
#206 = APPROVAL_PERSON_ORGANIZATION ( #132, #60, #87 ) ;
#207 = ADVANCED_FACE ( 'NONE', ( #92, #229 ), #65, .T. ) ;
#208 = APPROVAL_PERSON_ORGANIZATION ( #41, #137, #200 ) ;
#209 = DESIGN_CONTEXT ( 'detailed design', #37, 'design' ) ;
#210 = CC_DESIGN_DATE_AND_TIME_ASSIGNMENT ( #147, #236, ( #228 ) ) ;
#211 = CARTESIAN_POINT ( 'NONE',  ( 2.779219145719134403E-13, -7.189289034394536528E-15, 79.60000000000000853 ) ) ;
#212 = CLOSED_SHELL ( 'NONE', ( #194, #53, #116, #133, #162 ) ) ;
#213 = CARTESIAN_POINT ( 'NONE',  ( 1.396592535537253342E-15, 2.553999999999997605, 0.3999999999999999667 ) ) ;
#214 = DIRECTION ( 'NONE',  ( 3.491481338843133355E-15, 5.068314711964053081E-16, 1.000000000000000000 ) ) ;
#215 = VERTEX_POINT ( 'NONE', #42 ) ;
#216 = PERSON_AND_ORGANIZATION ( #190, #102 ) ;
#217 = FACE_OUTER_BOUND ( 'NONE', #52, .T. ) ;
#218 = AXIS2_PLACEMENT_3D ( 'NONE', #186, #59, #193 ) ;
#219 = APPROVAL_STATUS ( 'not_yet_approved' ) ;
#220 = ORIENTED_EDGE ( 'NONE', *, *, #141, .T. ) ;
#221 = PERSON_AND_ORGANIZATION_ROLE ( 'design_owner' ) ;
#222 = EDGE_LOOP ( 'NONE', ( #155 ) ) ;
#223 = LOCAL_TIME ( 11, 3, 34.00000000000000000, #9 ) ;
#224 = EDGE_LOOP ( 'NONE', ( #49 ) ) ;
#225 = PRODUCT_DEFINITION_SHAPE ( 'NONE', 'NONE',  #228 ) ;
#226 = CIRCLE ( 'NONE', #16, 2.553999999999991388 ) ;
#227 = AXIS2_PLACEMENT_3D ( 'NONE', #24, #10, #235 ) ;
#228 = PRODUCT_DEFINITION ( 'UNKNOWN', '', #70, #209 ) ;
#229 = FACE_OUTER_BOUND ( 'NONE', #189, .T. ) ;
#230 = LOCAL_TIME ( 11, 3, 34.00000000000000000, #21 ) ;
#231 = DIRECTION ( 'NONE',  ( -2.413068058746740478E-30, 1.000000000000000000, -6.792182756369666606E-16 ) ) ;
#232 = CALENDAR_DATE ( 2021, 26, 11 ) ;
#233 = VERTEX_POINT ( 'NONE', #145 ) ;
#234 = CARTESIAN_POINT ( 'NONE',  ( 0.0000000000000000000, 0.0000000000000000000, 0.0000000000000000000 ) ) ;
#235 = DIRECTION ( 'NONE',  ( 0.0000000000000000000, 1.000000000000000000, 0.0000000000000000000 ) ) ;
#236 = DATE_TIME_ROLE ( 'creation_date' ) ;
#237 = LOCAL_TIME ( 11, 3, 34.00000000000000000, #163 ) ;
#238 = EDGE_LOOP ( 'NONE', ( #96 ) ) ;
#239 = APPLICATION_PROTOCOL_DEFINITION ( 'international standard', 'config_control_design', 1994, #103 ) ;
#240 = EDGE_LOOP ( 'NONE', ( #205 ) ) ;
#241 = CARTESIAN_POINT ( 'NONE',  ( 2.793185071074506684E-13, -7.225416114969383207E-15, 80.00000000000000000 ) ) ;
#242 = CC_DESIGN_PERSON_AND_ORGANIZATION_ASSIGNMENT ( #150, #110, ( #70 ) ) ;
#243 = DIRECTION ( 'NONE',  ( 0.0000000000000000000, 1.000000000000000000, 0.0000000000000000000 ) ) ;
ENDSEC;
END-ISO-10303-21;
