ISO-10303-21;
HEADER;
FILE_DESCRIPTION (( 'STEP AP203' ),
    '1' );
FILE_NAME ('321413.step',
    '2021-11-26T10:03:34',
    ( '' ),
    ( '' ),
    'SwSTEP 2.0',
    'SolidWorks 2019',
    '' );
FILE_SCHEMA (( 'CONFIG_CONTROL_DESIGN' ));
ENDSEC;

DATA;
#1 = CARTESIAN_POINT ( 'NONE',  ( 4.553227733272316173E-14, -1.177829760720275262E-15, 13.04096253534891225 ) ) ;
#2 = LOCAL_TIME ( 11, 3, 34.00000000000000000, #171 ) ;
#3 = DIRECTION ( 'NONE',  ( 1.767849571379590381E-30, -1.000000000000000000, 5.063322411928886167E-16 ) ) ;
#4 = ORIENTED_EDGE ( 'NONE', *, *, #88, .F. ) ;
#5 = CALENDAR_DATE ( 2021, 26, 11 ) ;
#6 = VERTEX_POINT ( 'NONE', #9 ) ;
#7 = LOCAL_TIME ( 11, 3, 34.00000000000000000, #216 ) ;
#8 = CARTESIAN_POINT ( 'NONE',  ( 2.793185071074506684E-13, -7.225416114969383207E-15, 80.00000000000000000 ) ) ;
#9 = CARTESIAN_POINT ( 'NONE',  ( 4.553227733272316173E-14, 2.548999999999998156, 13.04096253534891225 ) ) ;
#10 = ORIENTED_EDGE ( 'NONE', *, *, #179, .T. ) ;
#11 = CALENDAR_DATE ( 2021, 26, 11 ) ;
#12 = CARTESIAN_POINT ( 'NONE',  ( 2.779219145719134403E-13, -7.189289034394536528E-15, 79.60000000000000853 ) ) ;
#13 = CARTESIAN_POINT ( 'NONE',  ( 4.553227733272316173E-14, -1.177829760720275262E-15, 13.04096253534891225 ) ) ;
#14 = CYLINDRICAL_SURFACE ( 'NONE', #119, 1.999999999999993561 ) ;
#15 = DATE_AND_TIME ( #115, #55 ) ;
#16 = AXIS2_PLACEMENT_3D ( 'NONE', #47, #94, #28 ) ;
#17 = DATE_TIME_ROLE ( 'classification_date' ) ;
#18 = PERSON_AND_ORGANIZATION ( #90, #242 ) ;
#19 = LOCAL_TIME ( 11, 3, 34.00000000000000000, #148 ) ;
#20 = ADVANCED_FACE ( 'NONE', ( #145, #217 ), #174, .T. ) ;
#21 = ORIENTED_EDGE ( 'NONE', *, *, #179, .F. ) ;
#22 = EDGE_LOOP ( 'NONE', ( #236 ) ) ;
#23 = AXIS2_PLACEMENT_3D ( 'NONE', #60, #131, #231 ) ;
#24 = DESIGN_CONTEXT ( 'detailed design', #100, 'design' ) ;
#25 = DIRECTION ( 'NONE',  ( 0.0000000000000000000, 1.000000000000000000, 0.0000000000000000000 ) ) ;
#26 = AXIS2_PLACEMENT_3D ( 'NONE', #155, #46, #121 ) ;
#27 = EDGE_LOOP ( 'NONE', ( #62 ) ) ;
#28 = DIRECTION ( 'NONE',  ( -1.767849571379590731E-30, 1.000000000000000000, -5.063322411928885180E-16 ) ) ;
#29 = EDGE_LOOP ( 'NONE', ( #172 ) ) ;
#30 = CARTESIAN_POINT ( 'NONE',  ( 2.779219145719134403E-13, 1.999999999999988010, 79.60000000000000853 ) ) ;
#31 = CARTESIAN_POINT ( 'NONE',  ( 4.553227733272315541E-14, 2.548999999999998156, 13.04096253534891048 ) ) ;
#32 = ADVANCED_FACE ( 'NONE', ( #238, #80 ), #205, .T. ) ;
#33 = AXIS2_PLACEMENT_3D ( 'NONE', #70, #140, #67 ) ;
#34 = PERSON_AND_ORGANIZATION ( #90, #242 ) ;
#35 = CALENDAR_DATE ( 2021, 26, 11 ) ;
#36 = CARTESIAN_POINT ( 'NONE',  ( 2.779219145719134403E-13, -7.189289034394536528E-15, 79.60000000000000853 ) ) ;
#37 = ADVANCED_FACE ( 'NONE', ( #116 ), #241, .T. ) ;
#38 = COORDINATED_UNIVERSAL_TIME_OFFSET ( 1, 0, .AHEAD. ) ;
#39 = AXIS2_PLACEMENT_3D ( 'NONE', #1, #210, #25 ) ;
#40 = FACE_OUTER_BOUND ( 'NONE', #102, .T. ) ;
#41 = APPROVAL_STATUS ( 'not_yet_approved' ) ;
#42 =( LENGTH_UNIT ( ) NAMED_UNIT ( * ) SI_UNIT ( .MILLI., .METRE. ) );
#43 = APPROVAL_DATE_TIME ( #207, #53 ) ;
#44 = APPROVAL_PERSON_ORGANIZATION ( #125, #150, #198 ) ;
#45 = CC_DESIGN_DATE_AND_TIME_ASSIGNMENT ( #15, #17, ( #175 ) ) ;
#46 = DIRECTION ( 'NONE',  ( 0.0000000000000000000, 0.0000000000000000000, 1.000000000000000000 ) ) ;
#47 = CARTESIAN_POINT ( 'NONE',  ( 0.0000000000000000000, 0.0000000000000000000, 0.0000000000000000000 ) ) ;
#48 = ORIENTED_EDGE ( 'NONE', *, *, #113, .F. ) ;
#49 = VERTEX_POINT ( 'NONE', #212 ) ;
#50 = SECURITY_CLASSIFICATION_LEVEL ( 'unclassified' ) ;
#51 = EDGE_LOOP ( 'NONE', ( #71 ) ) ;
#52 = CARTESIAN_POINT ( 'NONE',  ( 4.097981187077468182E-30, 5.942864353119351506E-31, 1.173708460499832502E-15 ) ) ;
#53 = APPROVAL ( #41, 'UNSPECIFIED' ) ;
#54 = DIRECTION ( 'NONE',  ( -2.417801420964760402E-30, 1.000000000000000000, -6.805505986570469175E-16 ) ) ;
#55 = LOCAL_TIME ( 11, 3, 34.00000000000000000, #38 ) ;
#56 = DIRECTION ( 'NONE',  ( 0.0000000000000000000, 1.000000000000000000, 0.0000000000000000000 ) ) ;
#57 = CARTESIAN_POINT ( 'NONE',  ( -2.048990593538734091E-30, 2.318059892324149107, -5.868542302499162508E-16 ) ) ;
#58 = DIRECTION ( 'NONE',  ( -3.491481338843133355E-15, 9.031770143711729009E-17, -1.000000000000000000 ) ) ;
#59 = PERSON_AND_ORGANIZATION_ROLE ( 'design_owner' ) ;
#60 = CARTESIAN_POINT ( 'NONE',  ( 4.885231259955590439E-14, -1.263712492114123682E-15, 13.99185842870425134 ) ) ;
#61 = CONICAL_SURFACE ( 'NONE', #157, 2.318059892324149107, 0.5235987755982978165 ) ;
#62 = ORIENTED_EDGE ( 'NONE', *, *, #88, .T. ) ;
#63 = APPROVAL_ROLE ( '' ) ;
#64 = CC_DESIGN_SECURITY_CLASSIFICATION ( #175, ( #101 ) ) ;
#65 = EDGE_CURVE ( 'NONE', #158, #158, #118, .T. ) ;
#66 = PLANE ( 'NONE',  #181 ) ;
#67 = DIRECTION ( 'NONE',  ( -1.737794771318417105E-30, 1.000000000000000000, -5.104129489927838816E-16 ) ) ;
#68 = CIRCLE ( 'NONE', #83, 2.318059892324149107 ) ;
#69 = ADVANCED_FACE ( 'NONE', ( #82, #193 ), #61, .T. ) ;
#70 = CARTESIAN_POINT ( 'NONE',  ( 1.396592535537257681E-15, 2.025328964771560778E-16, 0.4000000000000012434 ) ) ;
#71 = ORIENTED_EDGE ( 'NONE', *, *, #223, .T. ) ;
#72 = FACE_OUTER_BOUND ( 'NONE', #122, .T. ) ;
#73 = EDGE_LOOP ( 'NONE', ( #138 ) ) ;
#74 = PERSON_AND_ORGANIZATION ( #90, #242 ) ;
#75 = CARTESIAN_POINT ( 'NONE',  ( 4.553227733272316173E-14, 2.548999999999998156, 13.04096253534891225 ) ) ;
#76 = CC_DESIGN_PERSON_AND_ORGANIZATION_ASSIGNMENT ( #96, #195, ( #130 ) ) ;
#77 = EDGE_LOOP ( 'NONE', ( #10 ) ) ;
#78 = AXIS2_PLACEMENT_3D ( 'NONE', #36, #133, #56 ) ;
#79 = DIRECTION ( 'NONE',  ( 1.767849571379590731E-30, -1.000000000000000000, 5.063322411928886167E-16 ) ) ;
#80 = FACE_OUTER_BOUND ( 'NONE', #22, .T. ) ;
#81 = PERSON_AND_ORGANIZATION ( #90, #242 ) ;
#82 = FACE_OUTER_BOUND ( 'NONE', #27, .T. ) ;
#83 = AXIS2_PLACEMENT_3D ( 'NONE', #52, #99, #160 ) ;
#84 = APPLICATION_PROTOCOL_DEFINITION ( 'international standard', 'config_control_design', 1994, #203 ) ;
#85 = CALENDAR_DATE ( 2021, 26, 11 ) ;
#86 = ORIENTED_EDGE ( 'NONE', *, *, #215, .F. ) ;
#87 = AXIS2_PLACEMENT_3D ( 'NONE', #8, #95, #163 ) ;
#88 = EDGE_CURVE ( 'NONE', #126, #126, #132, .T. ) ;
#89 =( GEOMETRIC_REPRESENTATION_CONTEXT ( 3 ) GLOBAL_UNCERTAINTY_ASSIGNED_CONTEXT ( ( #153 ) ) GLOBAL_UNIT_ASSIGNED_CONTEXT ( ( #42, #243, #152 ) ) REPRESENTATION_CONTEXT ( 'NONE', 'WORKASPACE' ) );
#90 = PERSON ( 'UNSPECIFIED', 'UNSPECIFIED', 'UNSPECIFIED', ('UNSPECIFIED'), ('UNSPECIFIED'), ('UNSPECIFIED') ) ;
#91 = CC_DESIGN_PERSON_AND_ORGANIZATION_ASSIGNMENT ( #34, #111, ( #175 ) ) ;
#92 = APPROVAL_PERSON_ORGANIZATION ( #81, #168, #177 ) ;
#93 = EDGE_LOOP ( 'NONE', ( #48 ) ) ;
#94 = DIRECTION ( 'NONE',  ( -3.491481338843133355E-15, -5.063322411928886167E-16, -1.000000000000000000 ) ) ;
#95 = DIRECTION ( 'NONE',  ( -3.491481338843133355E-15, 9.031770143711729009E-17, -1.000000000000000000 ) ) ;
#96 = PERSON_AND_ORGANIZATION ( #90, #242 ) ;
#97 = PLANE ( 'NONE',  #103 ) ;
#98 = DIRECTION ( 'NONE',  ( -3.491481338843133355E-15, 9.031770143711729009E-17, -1.000000000000000000 ) ) ;
#99 = DIRECTION ( 'NONE',  ( -3.491481338843133355E-15, -5.063322411928886167E-16, -1.000000000000000000 ) ) ;
#100 = APPLICATION_CONTEXT ( 'configuration controlled 3d designs of mechanical parts and assemblies' ) ;
#101 = PRODUCT_DEFINITION_FORMATION_WITH_SPECIFIED_SOURCE ( 'ANY', '', #225, .NOT_KNOWN. ) ;
#102 = EDGE_LOOP ( 'NONE', ( #86 ) ) ;
#103 = AXIS2_PLACEMENT_3D ( 'NONE', #151, #183, #224 ) ;
#104 = CC_DESIGN_DATE_AND_TIME_ASSIGNMENT ( #144, #167, ( #130 ) ) ;
#105 = CARTESIAN_POINT ( 'NONE',  ( 4.097981187077468182E-30, 5.942864353119351506E-31, 1.173708460499832502E-15 ) ) ;
#106 = CLOSED_SHELL ( 'NONE', ( #37, #235, #69, #107 ) ) ;
#107 = ADVANCED_FACE ( 'NONE', ( #123 ), #66, .T. ) ;
#108 = ORIENTED_EDGE ( 'NONE', *, *, #230, .T. ) ;
#109 = DIRECTION ( 'NONE',  ( -3.491481338843133355E-15, 9.031770143711729009E-17, -1.000000000000000000 ) ) ;
#110 = DATE_AND_TIME ( #35, #19 ) ;
#111 = PERSON_AND_ORGANIZATION_ROLE ( 'classification_officer' ) ;
#112 = CARTESIAN_POINT ( 'NONE',  ( 4.553227733272315541E-14, 6.603059787835710105E-15, 13.04096253534891048 ) ) ;
#113 = EDGE_CURVE ( 'NONE', #239, #239, #68, .T. ) ;
#114 = DIRECTION ( 'NONE',  ( 0.0000000000000000000, 1.000000000000000000, 0.0000000000000000000 ) ) ;
#115 = CALENDAR_DATE ( 2021, 26, 11 ) ;
#116 = FACE_OUTER_BOUND ( 'NONE', #194, .T. ) ;
#117 = DIRECTION ( 'NONE',  ( -1.767849571379590731E-30, 1.000000000000000000, -5.063322411928886167E-16 ) ) ;
#118 = CIRCLE ( 'NONE', #137, 1.999999999999995337 ) ;
#119 = AXIS2_PLACEMENT_3D ( 'NONE', #197, #124, #169 ) ;
#120 = CC_DESIGN_APPROVAL ( #168, ( #130 ) ) ;
#121 = DIRECTION ( 'NONE',  ( 1.000000000000000000, 0.0000000000000000000, 0.0000000000000000000 ) ) ;
#122 = EDGE_LOOP ( 'NONE', ( #108 ) ) ;
#123 = FACE_OUTER_BOUND ( 'NONE', #170, .T. ) ;
#124 = DIRECTION ( 'NONE',  ( -3.491481338843133355E-15, 9.031770143711729009E-17, -1.000000000000000000 ) ) ;
#125 = PERSON_AND_ORGANIZATION ( #90, #242 ) ;
#126 = VERTEX_POINT ( 'NONE', #182 ) ;
#127 = FACE_OUTER_BOUND ( 'NONE', #228, .T. ) ;
#128 = PERSON_AND_ORGANIZATION_ROLE ( 'design_supplier' ) ;
#129 = APPROVAL_DATE_TIME ( #199, #168 ) ;
#130 = PRODUCT_DEFINITION ( 'UNKNOWN', '', #101, #24 ) ;
#131 = DIRECTION ( 'NONE',  ( -3.491481338843133355E-15, 9.031770143711729009E-17, -1.000000000000000000 ) ) ;
#132 = CIRCLE ( 'NONE', #33, 2.548999999999998600 ) ;
#133 = DIRECTION ( 'NONE',  ( -3.491481338843133355E-15, 9.031770143711729009E-17, -1.000000000000000000 ) ) ;
#134 = CC_DESIGN_APPROVAL ( #53, ( #175 ) ) ;
#135 = SHAPE_DEFINITION_REPRESENTATION ( #139, #188 ) ;
#136 = MECHANICAL_CONTEXT ( 'NONE', #203, 'mechanical' ) ;
#137 = AXIS2_PLACEMENT_3D ( 'NONE', #12, #98, #186 ) ;
#138 = ORIENTED_EDGE ( 'NONE', *, *, #230, .F. ) ;
#139 = PRODUCT_DEFINITION_SHAPE ( 'NONE', 'NONE',  #130 ) ;
#140 = DIRECTION ( 'NONE',  ( -3.491481338843133355E-15, -5.063322411928886167E-16, -1.000000000000000000 ) ) ;
#141 = APPROVAL_DATE_TIME ( #110, #150 ) ;
#142 = CIRCLE ( 'NONE', #200, 2.548999999999991939 ) ;
#143 = FACE_OUTER_BOUND ( 'NONE', #191, .T. ) ;
#144 = DATE_AND_TIME ( #5, #7 ) ;
#145 = FACE_BOUND ( 'NONE', #77, .T. ) ;
#146 = APPLICATION_PROTOCOL_DEFINITION ( 'international standard', 'config_control_design', 1994, #100 ) ;
#147 = ADVANCED_FACE ( 'NONE', ( #127, #143 ), #14, .T. ) ;
#148 = COORDINATED_UNIVERSAL_TIME_OFFSET ( 1, 0, .AHEAD. ) ;
#149 = CLOSED_SHELL ( 'NONE', ( #173, #32, #147, #20, #209 ) ) ;
#150 = APPROVAL ( #164, 'UNSPECIFIED' ) ;
#151 = CARTESIAN_POINT ( 'NONE',  ( 2.793185071074506684E-13, -7.225416114969383207E-15, 80.00000000000000000 ) ) ;
#152 =( NAMED_UNIT ( * ) SI_UNIT ( $, .STERADIAN. ) SOLID_ANGLE_UNIT ( ) );
#153 = UNCERTAINTY_MEASURE_WITH_UNIT (LENGTH_MEASURE( 1.000000000000000082E-05 ), #42, 'distance_accuracy_value', 'NONE');
#154 = PERSON_AND_ORGANIZATION ( #90, #242 ) ;
#155 = CARTESIAN_POINT ( 'NONE',  ( 0.0000000000000000000, 0.0000000000000000000, 0.0000000000000000000 ) ) ;
#156 = CC_DESIGN_APPROVAL ( #150, ( #101 ) ) ;
#157 = AXIS2_PLACEMENT_3D ( 'NONE', #105, #184, #3 ) ;
#158 = VERTEX_POINT ( 'NONE', #30 ) ;
#159 = CYLINDRICAL_SURFACE ( 'NONE', #16, 2.548999999999995492 ) ;
#160 = DIRECTION ( 'NONE',  ( -1.767849571379590731E-30, 1.000000000000000000, -5.063322411928886167E-16 ) ) ;
#161 = AXIS2_PLACEMENT_3D ( 'NONE', #31, #109, #180 ) ;
#162 = ORIENTED_EDGE ( 'NONE', *, *, #113, .T. ) ;
#163 = DIRECTION ( 'NONE',  ( 0.0000000000000000000, 1.000000000000000000, 0.0000000000000000000 ) ) ;
#164 = APPROVAL_STATUS ( 'not_yet_approved' ) ;
#165 = VERTEX_POINT ( 'NONE', #75 ) ;
#166 = EDGE_LOOP ( 'NONE', ( #4 ) ) ;
#167 = DATE_TIME_ROLE ( 'creation_date' ) ;
#168 = APPROVAL ( #233, 'UNSPECIFIED' ) ;
#169 = DIRECTION ( 'NONE',  ( 3.153425691349006731E-31, 1.000000000000000000, 9.031770143711729009E-17 ) ) ;
#170 = EDGE_LOOP ( 'NONE', ( #162 ) ) ;
#171 = COORDINATED_UNIVERSAL_TIME_OFFSET ( 1, 0, .AHEAD. ) ;
#172 = ORIENTED_EDGE ( 'NONE', *, *, #215, .T. ) ;
#173 = ADVANCED_FACE ( 'NONE', ( #40 ), #97, .T. ) ;
#174 = CONICAL_SURFACE ( 'NONE', #208, 2.548999999999999488, 0.5235987755982932645 ) ;
#175 = SECURITY_CLASSIFICATION ( '', '', #50 ) ;
#176 = FACE_OUTER_BOUND ( 'NONE', #166, .T. ) ;
#177 = APPROVAL_ROLE ( '' ) ;
#178 = VERTEX_POINT ( 'NONE', #219 ) ;
#179 = EDGE_CURVE ( 'NONE', #49, #49, #214, .T. ) ;
#180 = DIRECTION ( 'NONE',  ( 3.153425691349006731E-31, 1.000000000000000000, 9.031770143711729009E-17 ) ) ;
#181 = AXIS2_PLACEMENT_3D ( 'NONE', #57, #204, #117 ) ;
#182 = CARTESIAN_POINT ( 'NONE',  ( 1.396592535537253342E-15, 2.548999999999998600, 0.3999999999999999667 ) ) ;
#183 = DIRECTION ( 'NONE',  ( 3.491481338843133355E-15, -9.031770143711729009E-17, 1.000000000000000000 ) ) ;
#184 = DIRECTION ( 'NONE',  ( 3.491481338843133355E-15, 5.063322411928886167E-16, 1.000000000000000000 ) ) ;
#185 = DIRECTION ( 'NONE',  ( 3.491481338843133355E-15, 5.063322411928886167E-16, 1.000000000000000000 ) ) ;
#186 = DIRECTION ( 'NONE',  ( 0.0000000000000000000, 1.000000000000000000, 0.0000000000000000000 ) ) ;
#187 = PERSON_AND_ORGANIZATION ( #90, #242 ) ;
#188 = ADVANCED_BREP_SHAPE_REPRESENTATION ( '321413', ( #211, #213, #26 ), #89 ) ;
#189 = CIRCLE ( 'NONE', #87, 1.599999999999994982 ) ;
#190 = FACE_OUTER_BOUND ( 'NONE', #51, .T. ) ;
#191 = EDGE_LOOP ( 'NONE', ( #21 ) ) ;
#192 = CIRCLE ( 'NONE', #39, 2.548999999999999488 ) ;
#193 = FACE_BOUND ( 'NONE', #93, .T. ) ;
#194 = EDGE_LOOP ( 'NONE', ( #220 ) ) ;
#195 = PERSON_AND_ORGANIZATION_ROLE ( 'creator' ) ;
#196 = CC_DESIGN_PERSON_AND_ORGANIZATION_ASSIGNMENT ( #187, #128, ( #101 ) ) ;
#197 = CARTESIAN_POINT ( 'NONE',  ( 0.0000000000000000000, 0.0000000000000000000, 0.0000000000000000000 ) ) ;
#198 = APPROVAL_ROLE ( '' ) ;
#199 = DATE_AND_TIME ( #11, #227 ) ;
#200 = AXIS2_PLACEMENT_3D ( 'NONE', #232, #221, #54 ) ;
#201 = ORIENTED_EDGE ( 'NONE', *, *, #65, .T. ) ;
#202 = PERSON_AND_ORGANIZATION_ROLE ( 'creator' ) ;
#203 = APPLICATION_CONTEXT ( 'configuration controlled 3d designs of mechanical parts and assemblies' ) ;
#204 = DIRECTION ( 'NONE',  ( -3.491481338843133355E-15, -5.063322411928886167E-16, -1.000000000000000000 ) ) ;
#205 = CONICAL_SURFACE ( 'NONE', #78, 1.999999999999995337, 0.7853981633974516097 ) ;
#206 = CARTESIAN_POINT ( 'NONE',  ( 6.842277657836020854E-46, 2.318059892324149107, 0.0000000000000000000 ) ) ;
#207 = DATE_AND_TIME ( #85, #2 ) ;
#208 = AXIS2_PLACEMENT_3D ( 'NONE', #13, #58, #114 ) ;
#209 = ADVANCED_FACE ( 'NONE', ( #72 ), #218, .T. ) ;
#210 = DIRECTION ( 'NONE',  ( -3.491481338843133355E-15, 9.031770143711729009E-17, -1.000000000000000000 ) ) ;
#211 = MANIFOLD_SOLID_BREP ( 'Corps-Déplacer/Copier1[1]', #149 ) ;
#212 = CARTESIAN_POINT ( 'NONE',  ( 4.885231259955590439E-14, 1.999999999999990452, 13.99185842870425134 ) ) ;
#213 = MANIFOLD_SOLID_BREP ( 'Corps-Déplacer/Copier1[2]', #106 ) ;
#214 = CIRCLE ( 'NONE', #23, 1.999999999999991784 ) ;
#215 = EDGE_CURVE ( 'NONE', #178, #178, #189, .T. ) ;
#216 = COORDINATED_UNIVERSAL_TIME_OFFSET ( 1, 0, .AHEAD. ) ;
#217 = FACE_OUTER_BOUND ( 'NONE', #73, .T. ) ;
#218 = PLANE ( 'NONE',  #161 ) ;
#219 = CARTESIAN_POINT ( 'NONE',  ( 2.793185071074506684E-13, 1.599999999999987876, 80.00000000000000000 ) ) ;
#220 = ORIENTED_EDGE ( 'NONE', *, *, #223, .F. ) ;
#221 = DIRECTION ( 'NONE',  ( -3.491481338843133355E-15, -5.063322411928886167E-16, -1.000000000000000000 ) ) ;
#222 = APPROVAL_PERSON_ORGANIZATION ( #18, #53, #63 ) ;
#223 = EDGE_CURVE ( 'NONE', #6, #6, #142, .T. ) ;
#224 = DIRECTION ( 'NONE',  ( -3.153425691349006731E-31, -1.000000000000000000, -9.031770143711729009E-17 ) ) ;
#225 = PRODUCT ( '321413', '321413', '', ( #136 ) ) ;
#226 = CC_DESIGN_PERSON_AND_ORGANIZATION_ASSIGNMENT ( #154, #59, ( #225 ) ) ;
#227 = LOCAL_TIME ( 11, 3, 34.00000000000000000, #234 ) ;
#228 = EDGE_LOOP ( 'NONE', ( #201 ) ) ;
#229 = CC_DESIGN_PERSON_AND_ORGANIZATION_ASSIGNMENT ( #74, #202, ( #101 ) ) ;
#230 = EDGE_CURVE ( 'NONE', #165, #165, #192, .T. ) ;
#231 = DIRECTION ( 'NONE',  ( 0.0000000000000000000, 1.000000000000000000, 0.0000000000000000000 ) ) ;
#232 = CARTESIAN_POINT ( 'NONE',  ( 4.553227733272316804E-14, 6.603059787835710105E-15, 13.04096253534891403 ) ) ;
#233 = APPROVAL_STATUS ( 'not_yet_approved' ) ;
#234 = COORDINATED_UNIVERSAL_TIME_OFFSET ( 1, 0, .AHEAD. ) ;
#235 = ADVANCED_FACE ( 'NONE', ( #190, #176 ), #159, .T. ) ;
#236 = ORIENTED_EDGE ( 'NONE', *, *, #65, .F. ) ;
#237 = AXIS2_PLACEMENT_3D ( 'NONE', #112, #185, #79 ) ;
#238 = FACE_BOUND ( 'NONE', #29, .T. ) ;
#239 = VERTEX_POINT ( 'NONE', #206 ) ;
#240 = PRODUCT_RELATED_PRODUCT_CATEGORY ( 'detail', '', ( #225 ) ) ;
#241 = PLANE ( 'NONE',  #237 ) ;
#242 = ORGANIZATION ( 'UNSPECIFIED', 'UNSPECIFIED', '' ) ;
#243 =( NAMED_UNIT ( * ) PLANE_ANGLE_UNIT ( ) SI_UNIT ( $, .RADIAN. ) );
ENDSEC;
END-ISO-10303-21;
