ISO-10303-21;
HEADER;
FILE_DESCRIPTION (( 'STEP AP203' ),
    '1' );
FILE_NAME ('321412.step',
    '2021-11-26T10:03:33',
    ( '' ),
    ( '' ),
    'SwSTEP 2.0',
    'SolidWorks 2019',
    '' );
FILE_SCHEMA (( 'CONFIG_CONTROL_DESIGN' ));
ENDSEC;

DATA;
#1 = DIRECTION ( 'NONE',  ( -3.491481338843133355E-15, -5.058336738075516498E-16, -1.000000000000000000 ) ) ;
#2 = CIRCLE ( 'NONE', #67, 2.313059892324148326 ) ;
#3 = DIRECTION ( 'NONE',  ( 3.153425691349006731E-31, 1.000000000000000000, 9.031770143711729009E-17 ) ) ;
#4 = CIRCLE ( 'NONE', #61, 1.599999999999994982 ) ;
#5 = CARTESIAN_POINT ( 'NONE',  ( 2.793185071074506684E-13, -7.225416114969383207E-15, 80.00000000000000000 ) ) ;
#6 = EDGE_CURVE ( 'NONE', #149, #149, #113, .T. ) ;
#7 = COORDINATED_UNIVERSAL_TIME_OFFSET ( 1, 0, .AHEAD. ) ;
#8 = CARTESIAN_POINT ( 'NONE',  ( 4.556251444808593677E-14, 6.600938637358252917E-15, 13.04962278938675801 ) ) ;
#9 = FACE_OUTER_BOUND ( 'NONE', #55, .T. ) ;
#10 = CARTESIAN_POINT ( 'NONE',  ( 2.793185071074506684E-13, 1.599999999999987876, 80.00000000000000000 ) ) ;
#11 = DIRECTION ( 'NONE',  ( -3.491481338843133355E-15, 9.031770143711729009E-17, -1.000000000000000000 ) ) ;
#12 = DIRECTION ( 'NONE',  ( -3.491481338843133355E-15, 9.031770143711729009E-17, -1.000000000000000000 ) ) ;
#13 = PERSON_AND_ORGANIZATION ( #127, #210 ) ;
#14 = CIRCLE ( 'NONE', #153, 2.543999999999998263 ) ;
#15 = CIRCLE ( 'NONE', #104, 2.544000000000000039 ) ;
#16 = DATE_AND_TIME ( #112, #135 ) ;
#17 = AXIS2_PLACEMENT_3D ( 'NONE', #94, #177, #3 ) ;
#18 = COORDINATED_UNIVERSAL_TIME_OFFSET ( 1, 0, .AHEAD. ) ;
#19 = DIRECTION ( 'NONE',  ( -1.741210248463304168E-30, 1.000000000000000000, -5.114161190969364352E-16 ) ) ;
#20 = EDGE_CURVE ( 'NONE', #117, #117, #15, .T. ) ;
#21 = CLOSED_SHELL ( 'NONE', ( #205, #122, #100, #229, #218 ) ) ;
#22 = DIRECTION ( 'NONE',  ( -3.491481338843133355E-15, 9.031770143711729009E-17, -1.000000000000000000 ) ) ;
#23 = CARTESIAN_POINT ( 'NONE',  ( 2.779219145719134403E-13, 1.999999999999988010, 79.60000000000000853 ) ) ;
#24 = DIRECTION ( 'NONE',  ( -3.153425691349006731E-31, -1.000000000000000000, -9.031770143711729009E-17 ) ) ;
#25 = APPLICATION_CONTEXT ( 'configuration controlled 3d designs of mechanical parts and assemblies' ) ;
#26 = VERTEX_POINT ( 'NONE', #101 ) ;
#27 = PERSON_AND_ORGANIZATION ( #127, #210 ) ;
#28 = EDGE_CURVE ( 'NONE', #201, #201, #190, .T. ) ;
#29 = APPROVAL_PERSON_ORGANIZATION ( #27, #147, #76 ) ;
#30 = FACE_OUTER_BOUND ( 'NONE', #200, .T. ) ;
#31 = CARTESIAN_POINT ( 'NONE',  ( 2.779219145719134403E-13, -7.189289034394536528E-15, 79.60000000000000853 ) ) ;
#32 = COORDINATED_UNIVERSAL_TIME_OFFSET ( 1, 0, .AHEAD. ) ;
#33 = APPROVAL ( #185, 'UNSPECIFIED' ) ;
#34 = ORIENTED_EDGE ( 'NONE', *, *, #154, .F. ) ;
#35 = CIRCLE ( 'NONE', #181, 2.543999999999992045 ) ;
#36 = ORIENTED_EDGE ( 'NONE', *, *, #28, .T. ) ;
#37 = PERSON_AND_ORGANIZATION ( #127, #210 ) ;
#38 = APPLICATION_CONTEXT ( 'configuration controlled 3d designs of mechanical parts and assemblies' ) ;
#39 = CARTESIAN_POINT ( 'NONE',  ( 4.556251444808593046E-14, -1.178611934958834756E-15, 13.04962278938675624 ) ) ;
#40 = APPROVAL_STATUS ( 'not_yet_approved' ) ;
#41 = DIRECTION ( 'NONE',  ( -3.491481338843133355E-15, -5.058336738075516498E-16, -1.000000000000000000 ) ) ;
#42 = CC_DESIGN_DATE_AND_TIME_ASSIGNMENT ( #240, #203, ( #138 ) ) ;
#43 = VERTEX_POINT ( 'NONE', #10 ) ;
#44 = CARTESIAN_POINT ( 'NONE',  ( 4.556251444808593677E-14, 2.543999999999998707, 13.04962278938675801 ) ) ;
#45 = APPROVAL_PERSON_ORGANIZATION ( #221, #33, #74 ) ;
#46 = CARTESIAN_POINT ( 'NONE',  ( 4.556251444808593677E-14, 6.600938637358252917E-15, 13.04962278938675801 ) ) ;
#47 = CARTESIAN_POINT ( 'NONE',  ( 2.793185071074506684E-13, -7.225416114969383207E-15, 80.00000000000000000 ) ) ;
#48 = MANIFOLD_SOLID_BREP ( 'Corps-Déplacer/Copier1[1]', #21 ) ;
#49 = CARTESIAN_POINT ( 'NONE',  ( 0.0000000000000000000, 0.0000000000000000000, 0.0000000000000000000 ) ) ;
#50 = EDGE_CURVE ( 'NONE', #79, #79, #35, .T. ) ;
#51 = CARTESIAN_POINT ( 'NONE',  ( 4.085115506299556407E-30, 5.918373274663921935E-31, 1.170023583071223820E-15 ) ) ;
#52 = EDGE_LOOP ( 'NONE', ( #222 ) ) ;
#53 = PERSON_AND_ORGANIZATION_ROLE ( 'creator' ) ;
#54 = ORIENTED_EDGE ( 'NONE', *, *, #50, .F. ) ;
#55 = EDGE_LOOP ( 'NONE', ( #70 ) ) ;
#56 = APPROVAL ( #169, 'UNSPECIFIED' ) ;
#57 = UNCERTAINTY_MEASURE_WITH_UNIT (LENGTH_MEASURE( 1.000000000000000082E-05 ), #165, 'distance_accuracy_value', 'NONE');
#58 = APPROVAL_ROLE ( '' ) ;
#59 = FACE_OUTER_BOUND ( 'NONE', #90, .T. ) ;
#60 = FACE_BOUND ( 'NONE', #189, .T. ) ;
#61 = AXIS2_PLACEMENT_3D ( 'NONE', #5, #80, #84 ) ;
#62 = CC_DESIGN_SECURITY_CLASSIFICATION ( #105, ( #230 ) ) ;
#63 = CC_DESIGN_DATE_AND_TIME_ASSIGNMENT ( #243, #228, ( #105 ) ) ;
#64 = CARTESIAN_POINT ( 'NONE',  ( 2.779219145719134403E-13, -7.189289034394536528E-15, 79.60000000000000853 ) ) ;
#65 = AXIS2_PLACEMENT_3D ( 'NONE', #64, #134, #114 ) ;
#66 = CYLINDRICAL_SURFACE ( 'NONE', #141, 2.543999999999995154 ) ;
#67 = AXIS2_PLACEMENT_3D ( 'NONE', #103, #150, #176 ) ;
#68 = DIRECTION ( 'NONE',  ( 3.491481338843133355E-15, 5.058336738075516498E-16, 1.000000000000000000 ) ) ;
#69 = DIRECTION ( 'NONE',  ( -3.491481338843133355E-15, 9.031770143711729009E-17, -1.000000000000000000 ) ) ;
#70 = ORIENTED_EDGE ( 'NONE', *, *, #223, .F. ) ;
#71 = PERSON_AND_ORGANIZATION ( #127, #210 ) ;
#72 = PERSON_AND_ORGANIZATION_ROLE ( 'design_owner' ) ;
#73 = SHAPE_DEFINITION_REPRESENTATION ( #132, #137 ) ;
#74 = APPROVAL_ROLE ( '' ) ;
#75 = ADVANCED_FACE ( 'NONE', ( #125 ), #83, .T. ) ;
#76 = APPROVAL_ROLE ( '' ) ;
#77 = CC_DESIGN_APPROVAL ( #56, ( #105 ) ) ;
#78 = FACE_OUTER_BOUND ( 'NONE', #126, .T. ) ;
#79 = VERTEX_POINT ( 'NONE', #195 ) ;
#80 = DIRECTION ( 'NONE',  ( -3.491481338843133355E-15, 9.031770143711729009E-17, -1.000000000000000000 ) ) ;
#81 = PLANE ( 'NONE',  #133 ) ;
#82 = APPLICATION_PROTOCOL_DEFINITION ( 'international standard', 'config_control_design', 1994, #38 ) ;
#83 = PLANE ( 'NONE',  #226 ) ;
#84 = DIRECTION ( 'NONE',  ( 0.0000000000000000000, 1.000000000000000000, 0.0000000000000000000 ) ) ;
#85 = ORIENTED_EDGE ( 'NONE', *, *, #163, .F. ) ;
#86 = CC_DESIGN_PERSON_AND_ORGANIZATION_ASSIGNMENT ( #187, #168, ( #105 ) ) ;
#87 = DIRECTION ( 'NONE',  ( 0.0000000000000000000, 1.000000000000000000, 0.0000000000000000000 ) ) ;
#88 = CLOSED_SHELL ( 'NONE', ( #75, #196, #171, #143 ) ) ;
#89 = APPROVAL_DATE_TIME ( #92, #33 ) ;
#90 = EDGE_LOOP ( 'NONE', ( #130 ) ) ;
#91 = CC_DESIGN_PERSON_AND_ORGANIZATION_ASSIGNMENT ( #166, #224, ( #230 ) ) ;
#92 = DATE_AND_TIME ( #202, #174 ) ;
#93 = CC_DESIGN_APPROVAL ( #147, ( #138 ) ) ;
#94 = CARTESIAN_POINT ( 'NONE',  ( 0.0000000000000000000, 0.0000000000000000000, 0.0000000000000000000 ) ) ;
#95 = CC_DESIGN_APPROVAL ( #33, ( #230 ) ) ;
#96 = CC_DESIGN_PERSON_AND_ORGANIZATION_ASSIGNMENT ( #37, #53, ( #138 ) ) ;
#97 = FACE_OUTER_BOUND ( 'NONE', #241, .T. ) ;
#98 = AXIS2_PLACEMENT_3D ( 'NONE', #44, #118, #206 ) ;
#99 = DIRECTION ( 'NONE',  ( 0.0000000000000000000, 1.000000000000000000, 0.0000000000000000000 ) ) ;
#100 = ADVANCED_FACE ( 'NONE', ( #102, #180 ), #192, .T. ) ;
#101 = CARTESIAN_POINT ( 'NONE',  ( 1.396592535537253342E-15, 2.543999999999998263, 0.3999999999999999667 ) ) ;
#102 = FACE_OUTER_BOUND ( 'NONE', #139, .T. ) ;
#103 = CARTESIAN_POINT ( 'NONE',  ( 4.085115506299556407E-30, 5.918373274663921935E-31, 1.170023583071223820E-15 ) ) ;
#104 = AXIS2_PLACEMENT_3D ( 'NONE', #182, #11, #87 ) ;
#105 = SECURITY_CLASSIFICATION ( '', '', #111 ) ;
#106 = DIRECTION ( 'NONE',  ( 0.0000000000000000000, 1.000000000000000000, 0.0000000000000000000 ) ) ;
#107 = ORIENTED_EDGE ( 'NONE', *, *, #50, .T. ) ;
#108 = CONICAL_SURFACE ( 'NONE', #65, 1.999999999999995337, 0.7853981633974516097 ) ;
#109 = ORIENTED_EDGE ( 'NONE', *, *, #154, .T. ) ;
#110 = EDGE_LOOP ( 'NONE', ( #54 ) ) ;
#111 = SECURITY_CLASSIFICATION_LEVEL ( 'unclassified' ) ;
#112 = CALENDAR_DATE ( 2021, 26, 11 ) ;
#113 = CIRCLE ( 'NONE', #160, 1.999999999999995337 ) ;
#114 = DIRECTION ( 'NONE',  ( 0.0000000000000000000, 1.000000000000000000, 0.0000000000000000000 ) ) ;
#115 = DIRECTION ( 'NONE',  ( 1.000000000000000000, 0.0000000000000000000, 0.0000000000000000000 ) ) ;
#116 = DIRECTION ( 'NONE',  ( -1.766108832657531121E-30, 1.000000000000000000, -5.058336738075515512E-16 ) ) ;
#117 = VERTEX_POINT ( 'NONE', #175 ) ;
#118 = DIRECTION ( 'NONE',  ( -3.491481338843133355E-15, 9.031770143711729009E-17, -1.000000000000000000 ) ) ;
#119 = CONICAL_SURFACE ( 'NONE', #186, 2.313059892324148326, 0.5235987755982978165 ) ;
#120 = AXIS2_PLACEMENT_3D ( 'NONE', #128, #69, #99 ) ;
#121 = LOCAL_TIME ( 11, 3, 33.00000000000000000, #207 ) ;
#122 = ADVANCED_FACE ( 'NONE', ( #60, #59 ), #108, .T. ) ;
#123 = DIRECTION ( 'NONE',  ( -3.491481338843133355E-15, -5.058336738075516498E-16, -1.000000000000000000 ) ) ;
#124 = DIRECTION ( 'NONE',  ( 3.491481338843133355E-15, 5.058336738075516498E-16, 1.000000000000000000 ) ) ;
#125 = FACE_OUTER_BOUND ( 'NONE', #110, .T. ) ;
#126 = EDGE_LOOP ( 'NONE', ( #188 ) ) ;
#127 = PERSON ( 'UNSPECIFIED', 'UNSPECIFIED', 'UNSPECIFIED', ('UNSPECIFIED'), ('UNSPECIFIED'), ('UNSPECIFIED') ) ;
#128 = CARTESIAN_POINT ( 'NONE',  ( 4.885231259955590439E-14, -1.263712492114123682E-15, 13.99185842870425134 ) ) ;
#129 = DESIGN_CONTEXT ( 'detailed design', #38, 'design' ) ;
#130 = ORIENTED_EDGE ( 'NONE', *, *, #6, .F. ) ;
#131 = APPROVAL_DATE_TIME ( #16, #56 ) ;
#132 = PRODUCT_DEFINITION_SHAPE ( 'NONE', 'NONE',  #138 ) ;
#133 = AXIS2_PLACEMENT_3D ( 'NONE', #136, #140, #232 ) ;
#134 = DIRECTION ( 'NONE',  ( -3.491481338843133355E-15, 9.031770143711729009E-17, -1.000000000000000000 ) ) ;
#135 = LOCAL_TIME ( 11, 3, 33.00000000000000000, #18 ) ;
#136 = CARTESIAN_POINT ( 'NONE',  ( -2.042557753149778204E-30, 2.313059892324148326, -5.850117915356119099E-16 ) ) ;
#137 = ADVANCED_BREP_SHAPE_REPRESENTATION ( '321412', ( #48, #209, #145 ), #193 ) ;
#138 = PRODUCT_DEFINITION ( 'UNKNOWN', '', #230, #129 ) ;
#139 = EDGE_LOOP ( 'NONE', ( #162 ) ) ;
#140 = DIRECTION ( 'NONE',  ( -3.491481338843133355E-15, -5.058336738075516498E-16, -1.000000000000000000 ) ) ;
#141 = AXIS2_PLACEMENT_3D ( 'NONE', #211, #41, #116 ) ;
#142 = CALENDAR_DATE ( 2021, 26, 11 ) ;
#143 = ADVANCED_FACE ( 'NONE', ( #157 ), #81, .T. ) ;
#144 = CALENDAR_DATE ( 2021, 26, 11 ) ;
#145 = AXIS2_PLACEMENT_3D ( 'NONE', #49, #197, #115 ) ;
#146 = LOCAL_TIME ( 11, 3, 33.00000000000000000, #32 ) ;
#147 = APPROVAL ( #40, 'UNSPECIFIED' ) ;
#148 = DIRECTION ( 'NONE',  ( 0.0000000000000000000, 1.000000000000000000, 0.0000000000000000000 ) ) ;
#149 = VERTEX_POINT ( 'NONE', #23 ) ;
#150 = DIRECTION ( 'NONE',  ( -3.491481338843133355E-15, -5.058336738075516498E-16, -1.000000000000000000 ) ) ;
#151 = FACE_OUTER_BOUND ( 'NONE', #52, .T. ) ;
#152 = VERTEX_POINT ( 'NONE', #155 ) ;
#153 = AXIS2_PLACEMENT_3D ( 'NONE', #183, #1, #19 ) ;
#154 = EDGE_CURVE ( 'NONE', #43, #43, #4, .T. ) ;
#155 = CARTESIAN_POINT ( 'NONE',  ( 0.0000000000000000000, 2.313059892324148326, 0.0000000000000000000 ) ) ;
#156 = EDGE_LOOP ( 'NONE', ( #220 ) ) ;
#157 = FACE_OUTER_BOUND ( 'NONE', #234, .T. ) ;
#158 = MECHANICAL_CONTEXT ( 'NONE', #25, 'mechanical' ) ;
#159 = EDGE_LOOP ( 'NONE', ( #85 ) ) ;
#160 = AXIS2_PLACEMENT_3D ( 'NONE', #31, #12, #106 ) ;
#161 = PERSON_AND_ORGANIZATION_ROLE ( 'design_supplier' ) ;
#162 = ORIENTED_EDGE ( 'NONE', *, *, #6, .T. ) ;
#163 = EDGE_CURVE ( 'NONE', #152, #152, #2, .T. ) ;
#164 = DATE_AND_TIME ( #219, #199 ) ;
#165 =( LENGTH_UNIT ( ) NAMED_UNIT ( * ) SI_UNIT ( .MILLI., .METRE. ) );
#166 = PERSON_AND_ORGANIZATION ( #127, #210 ) ;
#167 = CC_DESIGN_PERSON_AND_ORGANIZATION_ASSIGNMENT ( #13, #161, ( #230 ) ) ;
#168 = PERSON_AND_ORGANIZATION_ROLE ( 'classification_officer' ) ;
#169 = APPROVAL_STATUS ( 'not_yet_approved' ) ;
#170 = AXIS2_PLACEMENT_3D ( 'NONE', #47, #173, #24 ) ;
#171 = ADVANCED_FACE ( 'NONE', ( #231, #216 ), #119, .T. ) ;
#172 = FACE_BOUND ( 'NONE', #225, .T. ) ;
#173 = DIRECTION ( 'NONE',  ( 3.491481338843133355E-15, -9.031770143711729009E-17, 1.000000000000000000 ) ) ;
#174 = LOCAL_TIME ( 11, 3, 33.00000000000000000, #191 ) ;
#175 = CARTESIAN_POINT ( 'NONE',  ( 4.556251444808593046E-14, 2.543999999999998707, 13.04962278938675624 ) ) ;
#176 = DIRECTION ( 'NONE',  ( -1.766108832657531121E-30, 1.000000000000000000, -5.058336738075516498E-16 ) ) ;
#177 = DIRECTION ( 'NONE',  ( -3.491481338843133355E-15, 9.031770143711729009E-17, -1.000000000000000000 ) ) ;
#178 =( NAMED_UNIT ( * ) SI_UNIT ( $, .STERADIAN. ) SOLID_ANGLE_UNIT ( ) );
#179 = DIRECTION ( 'NONE',  ( -2.422553389166342052E-30, 1.000000000000000000, -6.818881587959168904E-16 ) ) ;
#180 = FACE_OUTER_BOUND ( 'NONE', #156, .T. ) ;
#181 = AXIS2_PLACEMENT_3D ( 'NONE', #46, #123, #179 ) ;
#182 = CARTESIAN_POINT ( 'NONE',  ( 4.556251444808593046E-14, -1.178611934958834756E-15, 13.04962278938675624 ) ) ;
#183 = CARTESIAN_POINT ( 'NONE',  ( 1.396592535537257681E-15, 2.023334695230212861E-16, 0.4000000000000012434 ) ) ;
#184 = ORIENTED_EDGE ( 'NONE', *, *, #223, .T. ) ;
#185 = APPROVAL_STATUS ( 'not_yet_approved' ) ;
#186 = AXIS2_PLACEMENT_3D ( 'NONE', #51, #124, #198 ) ;
#187 = PERSON_AND_ORGANIZATION ( #127, #210 ) ;
#188 = ORIENTED_EDGE ( 'NONE', *, *, #20, .F. ) ;
#189 = EDGE_LOOP ( 'NONE', ( #109 ) ) ;
#190 = CIRCLE ( 'NONE', #120, 1.999999999999991784 ) ;
#191 = COORDINATED_UNIVERSAL_TIME_OFFSET ( 1, 0, .AHEAD. ) ;
#192 = CYLINDRICAL_SURFACE ( 'NONE', #17, 1.999999999999993561 ) ;
#193 =( GEOMETRIC_REPRESENTATION_CONTEXT ( 3 ) GLOBAL_UNCERTAINTY_ASSIGNED_CONTEXT ( ( #57 ) ) GLOBAL_UNIT_ASSIGNED_CONTEXT ( ( #165, #235, #178 ) ) REPRESENTATION_CONTEXT ( 'NONE', 'WORKASPACE' ) );
#194 = PLANE ( 'NONE',  #170 ) ;
#195 = CARTESIAN_POINT ( 'NONE',  ( 4.556251444808593046E-14, 2.543999999999998707, 13.04962278938675624 ) ) ;
#196 = ADVANCED_FACE ( 'NONE', ( #30, #9 ), #66, .T. ) ;
#197 = DIRECTION ( 'NONE',  ( 0.0000000000000000000, 0.0000000000000000000, 1.000000000000000000 ) ) ;
#198 = DIRECTION ( 'NONE',  ( 1.766108832657531121E-30, -1.000000000000000000, 5.058336738075516498E-16 ) ) ;
#199 = LOCAL_TIME ( 11, 3, 33.00000000000000000, #7 ) ;
#200 = EDGE_LOOP ( 'NONE', ( #107 ) ) ;
#201 = VERTEX_POINT ( 'NONE', #233 ) ;
#202 = CALENDAR_DATE ( 2021, 26, 11 ) ;
#203 = DATE_TIME_ROLE ( 'creation_date' ) ;
#204 = AXIS2_PLACEMENT_3D ( 'NONE', #39, #22, #148 ) ;
#205 = ADVANCED_FACE ( 'NONE', ( #97 ), #194, .T. ) ;
#206 = DIRECTION ( 'NONE',  ( 3.153425691349006731E-31, 1.000000000000000000, 9.031770143711729009E-17 ) ) ;
#207 = COORDINATED_UNIVERSAL_TIME_OFFSET ( 1, 0, .AHEAD. ) ;
#208 = PRODUCT_RELATED_PRODUCT_CATEGORY ( 'detail', '', ( #217 ) ) ;
#209 = MANIFOLD_SOLID_BREP ( 'Corps-Déplacer/Copier1[2]', #88 ) ;
#210 = ORGANIZATION ( 'UNSPECIFIED', 'UNSPECIFIED', '' ) ;
#211 = CARTESIAN_POINT ( 'NONE',  ( 0.0000000000000000000, 0.0000000000000000000, 0.0000000000000000000 ) ) ;
#212 = PLANE ( 'NONE',  #98 ) ;
#213 = CONICAL_SURFACE ( 'NONE', #204, 2.544000000000000039, 0.5235987755982929315 ) ;
#214 = APPLICATION_PROTOCOL_DEFINITION ( 'international standard', 'config_control_design', 1994, #25 ) ;
#215 = ORIENTED_EDGE ( 'NONE', *, *, #163, .T. ) ;
#216 = FACE_BOUND ( 'NONE', #159, .T. ) ;
#217 = PRODUCT ( '321412', '321412', '', ( #158 ) ) ;
#218 = ADVANCED_FACE ( 'NONE', ( #151 ), #212, .T. ) ;
#219 = CALENDAR_DATE ( 2021, 26, 11 ) ;
#220 = ORIENTED_EDGE ( 'NONE', *, *, #28, .F. ) ;
#221 = PERSON_AND_ORGANIZATION ( #127, #210 ) ;
#222 = ORIENTED_EDGE ( 'NONE', *, *, #20, .T. ) ;
#223 = EDGE_CURVE ( 'NONE', #26, #26, #14, .T. ) ;
#224 = PERSON_AND_ORGANIZATION_ROLE ( 'creator' ) ;
#225 = EDGE_LOOP ( 'NONE', ( #36 ) ) ;
#226 = AXIS2_PLACEMENT_3D ( 'NONE', #8, #68, #236 ) ;
#227 = APPROVAL_PERSON_ORGANIZATION ( #242, #56, #58 ) ;
#228 = DATE_TIME_ROLE ( 'classification_date' ) ;
#229 = ADVANCED_FACE ( 'NONE', ( #172, #78 ), #213, .T. ) ;
#230 = PRODUCT_DEFINITION_FORMATION_WITH_SPECIFIED_SOURCE ( 'ANY', '', #217, .NOT_KNOWN. ) ;
#231 = FACE_OUTER_BOUND ( 'NONE', #237, .T. ) ;
#232 = DIRECTION ( 'NONE',  ( -1.766108832657531121E-30, 1.000000000000000000, -5.058336738075516498E-16 ) ) ;
#233 = CARTESIAN_POINT ( 'NONE',  ( 4.885231259955590439E-14, 1.999999999999990452, 13.99185842870425134 ) ) ;
#234 = EDGE_LOOP ( 'NONE', ( #215 ) ) ;
#235 =( NAMED_UNIT ( * ) PLANE_ANGLE_UNIT ( ) SI_UNIT ( $, .RADIAN. ) );
#236 = DIRECTION ( 'NONE',  ( 1.766108832657531121E-30, -1.000000000000000000, 5.058336738075516498E-16 ) ) ;
#237 = EDGE_LOOP ( 'NONE', ( #184 ) ) ;
#238 = APPROVAL_DATE_TIME ( #164, #147 ) ;
#239 = CC_DESIGN_PERSON_AND_ORGANIZATION_ASSIGNMENT ( #71, #72, ( #217 ) ) ;
#240 = DATE_AND_TIME ( #144, #146 ) ;
#241 = EDGE_LOOP ( 'NONE', ( #34 ) ) ;
#242 = PERSON_AND_ORGANIZATION ( #127, #210 ) ;
#243 = DATE_AND_TIME ( #142, #121 ) ;
ENDSEC;
END-ISO-10303-21;
