ISO-10303-21;
HEADER;
FILE_DESCRIPTION (( 'STEP AP203' ),
    '1' );
FILE_NAME ('321411.step',
    '2021-11-26T10:03:32',
    ( '' ),
    ( '' ),
    'SwSTEP 2.0',
    'SolidWorks 2019',
    '' );
FILE_SCHEMA (( 'CONFIG_CONTROL_DESIGN' ));
ENDSEC;

DATA;
#1 = ORIENTED_EDGE ( 'NONE', *, *, #211, .T. ) ;
#2 = ADVANCED_FACE ( 'NONE', ( #174, #236 ), #171, .T. ) ;
#3 = FACE_OUTER_BOUND ( 'NONE', #121, .T. ) ;
#4 = AXIS2_PLACEMENT_3D ( 'NONE', #223, #160, #53 ) ;
#5 = PRODUCT_DEFINITION_SHAPE ( 'NONE', 'NONE',  #63 ) ;
#6 = CARTESIAN_POINT ( 'NONE',  ( 2.779219145719134403E-13, -7.189289034394536528E-15, 79.60000000000000853 ) ) ;
#7 = CARTESIAN_POINT ( 'NONE',  ( 4.559275156344871181E-14, 2.538999999999998369, 13.05828304342460200 ) ) ;
#8 = AXIS2_PLACEMENT_3D ( 'NONE', #241, #69, #56 ) ;
#9 = CARTESIAN_POINT ( 'NONE',  ( 2.779219145719134403E-13, 1.999999999999988010, 79.60000000000000853 ) ) ;
#10 = EDGE_LOOP ( 'NONE', ( #86 ) ) ;
#11 = APPROVAL_ROLE ( '' ) ;
#12 = APPROVAL ( #101, 'UNSPECIFIED' ) ;
#13 = APPROVAL_ROLE ( '' ) ;
#14 = LOCAL_TIME ( 11, 3, 32.00000000000000000, #90 ) ;
#15 = DIRECTION ( 'NONE',  ( -3.491481338843133355E-15, 9.031770143711729009E-17, -1.000000000000000000 ) ) ;
#16 = SECURITY_CLASSIFICATION ( '', '', #109 ) ;
#17 = CARTESIAN_POINT ( 'NONE',  ( 2.793185071074506684E-13, -7.225416114969383207E-15, 80.00000000000000000 ) ) ;
#18 = APPROVAL ( #87, 'UNSPECIFIED' ) ;
#19 = COORDINATED_UNIVERSAL_TIME_OFFSET ( 1, 0, .AHEAD. ) ;
#20 = DATE_AND_TIME ( #240, #33 ) ;
#21 = DIRECTION ( 'NONE',  ( -1.764370402851507838E-30, 1.000000000000000000, -5.053357677220505557E-16 ) ) ;
#22 = ORIENTED_EDGE ( 'NONE', *, *, #44, .F. ) ;
#23 = CARTESIAN_POINT ( 'NONE',  ( 0.0000000000000000000, 0.0000000000000000000, 0.0000000000000000000 ) ) ;
#24 = CC_DESIGN_PERSON_AND_ORGANIZATION_ASSIGNMENT ( #194, #138, ( #63 ) ) ;
#25 = EDGE_LOOP ( 'NONE', ( #213 ) ) ;
#26 = DIRECTION ( 'NONE',  ( 0.0000000000000000000, 1.000000000000000000, 0.0000000000000000000 ) ) ;
#27 = APPROVAL_DATE_TIME ( #32, #12 ) ;
#28 = DIRECTION ( 'NONE',  ( 3.491481338843133355E-15, 5.053357677220505557E-16, 1.000000000000000000 ) ) ;
#29 = EDGE_LOOP ( 'NONE', ( #40 ) ) ;
#30 = ORIENTED_EDGE ( 'NONE', *, *, #162, .F. ) ;
#31 = DIRECTION ( 'NONE',  ( 0.0000000000000000000, 0.0000000000000000000, 1.000000000000000000 ) ) ;
#32 = DATE_AND_TIME ( #208, #82 ) ;
#33 = LOCAL_TIME ( 11, 3, 32.00000000000000000, #19 ) ;
#34 =( NAMED_UNIT ( * ) SI_UNIT ( $, .STERADIAN. ) SOLID_ANGLE_UNIT ( ) );
#35 = DATE_AND_TIME ( #68, #67 ) ;
#36 = DIRECTION ( 'NONE',  ( -1.764370402851507838E-30, 1.000000000000000000, -5.053357677220506543E-16 ) ) ;
#37 = DIRECTION ( 'NONE',  ( -1.744639177664688586E-30, 1.000000000000000000, -5.124232402452169790E-16 ) ) ;
#38 = DIRECTION ( 'NONE',  ( -1.764370402851507838E-30, 1.000000000000000000, -5.053357677220505557E-16 ) ) ;
#39 = MANIFOLD_SOLID_BREP ( 'Corps-Déplacer/Copier1[2]', #155 ) ;
#40 = ORIENTED_EDGE ( 'NONE', *, *, #141, .F. ) ;
#41 = FACE_OUTER_BOUND ( 'NONE', #25, .T. ) ;
#42 = PERSON_AND_ORGANIZATION ( #102, #92 ) ;
#43 = EDGE_LOOP ( 'NONE', ( #148 ) ) ;
#44 = EDGE_CURVE ( 'NONE', #210, #210, #224, .T. ) ;
#45 = APPLICATION_PROTOCOL_DEFINITION ( 'international standard', 'config_control_design', 1994, #78 ) ;
#46 = EDGE_LOOP ( 'NONE', ( #232 ) ) ;
#47 = CC_DESIGN_APPROVAL ( #18, ( #63 ) ) ;
#48 = SHAPE_DEFINITION_REPRESENTATION ( #5, #229 ) ;
#49 = APPROVAL_DATE_TIME ( #216, #18 ) ;
#50 = AXIS2_PLACEMENT_3D ( 'NONE', #159, #182, #37 ) ;
#51 = AXIS2_PLACEMENT_3D ( 'NONE', #6, #57, #131 ) ;
#52 = DIRECTION ( 'NONE',  ( -3.491481338843133355E-15, 9.031770143711729009E-17, -1.000000000000000000 ) ) ;
#53 = DIRECTION ( 'NONE',  ( 0.0000000000000000000, 1.000000000000000000, 0.0000000000000000000 ) ) ;
#54 = PERSON_AND_ORGANIZATION ( #102, #92 ) ;
#55 = CARTESIAN_POINT ( 'NONE',  ( 4.072272562025366335E-30, 5.893959559830792678E-31, 1.166345217636097225E-15 ) ) ;
#56 = DIRECTION ( 'NONE',  ( 0.0000000000000000000, 1.000000000000000000, 0.0000000000000000000 ) ) ;
#57 = DIRECTION ( 'NONE',  ( -3.491481338843133355E-15, 9.031770143711729009E-17, -1.000000000000000000 ) ) ;
#58 = DATE_AND_TIME ( #73, #163 ) ;
#59 = FACE_OUTER_BOUND ( 'NONE', #192, .T. ) ;
#60 = CIRCLE ( 'NONE', #115, 1.999999999999991784 ) ;
#61 = DIRECTION ( 'NONE',  ( 3.153425691349006731E-31, 1.000000000000000000, 9.031770143711729009E-17 ) ) ;
#62 = EDGE_LOOP ( 'NONE', ( #88 ) ) ;
#63 = PRODUCT_DEFINITION ( 'UNKNOWN', '', #72, #142 ) ;
#64 = APPLICATION_CONTEXT ( 'configuration controlled 3d designs of mechanical parts and assemblies' ) ;
#65 = APPLICATION_PROTOCOL_DEFINITION ( 'international standard', 'config_control_design', 1994, #64 ) ;
#66 = AXIS2_PLACEMENT_3D ( 'NONE', #243, #203, #21 ) ;
#67 = LOCAL_TIME ( 11, 3, 32.00000000000000000, #70 ) ;
#68 = CALENDAR_DATE ( 2021, 26, 11 ) ;
#69 = DIRECTION ( 'NONE',  ( -3.491481338843133355E-15, 9.031770143711729009E-17, -1.000000000000000000 ) ) ;
#70 = COORDINATED_UNIVERSAL_TIME_OFFSET ( 1, 0, .AHEAD. ) ;
#71 = DIRECTION ( 'NONE',  ( 3.491481338843133355E-15, -9.031770143711729009E-17, 1.000000000000000000 ) ) ;
#72 = PRODUCT_DEFINITION_FORMATION_WITH_SPECIFIED_SOURCE ( 'ANY', '', #218, .NOT_KNOWN. ) ;
#73 = CALENDAR_DATE ( 2021, 26, 11 ) ;
#74 = APPROVAL_DATE_TIME ( #58, #187 ) ;
#75 = CARTESIAN_POINT ( 'NONE',  ( 0.0000000000000000000, 0.0000000000000000000, 0.0000000000000000000 ) ) ;
#76 = APPROVAL_PERSON_ORGANIZATION ( #42, #187, #13 ) ;
#77 = CARTESIAN_POINT ( 'NONE',  ( 4.559275156344871181E-14, 6.598817486880805984E-15, 13.05828304342460200 ) ) ;
#78 = APPLICATION_CONTEXT ( 'configuration controlled 3d designs of mechanical parts and assemblies' ) ;
#79 = ADVANCED_FACE ( 'NONE', ( #94, #165 ), #235, .T. ) ;
#80 = CARTESIAN_POINT ( 'NONE',  ( 2.793185071074506684E-13, 1.599999999999987876, 80.00000000000000000 ) ) ;
#81 = APPROVAL_STATUS ( 'not_yet_approved' ) ;
#82 = LOCAL_TIME ( 11, 3, 32.00000000000000000, #193 ) ;
#83 = APPROVAL_ROLE ( '' ) ;
#84 = ORIENTED_EDGE ( 'NONE', *, *, #108, .F. ) ;
#85 =( NAMED_UNIT ( * ) PLANE_ANGLE_UNIT ( ) SI_UNIT ( $, .RADIAN. ) );
#86 = ORIENTED_EDGE ( 'NONE', *, *, #44, .T. ) ;
#87 = APPROVAL_STATUS ( 'not_yet_approved' ) ;
#88 = ORIENTED_EDGE ( 'NONE', *, *, #91, .T. ) ;
#89 = DATE_TIME_ROLE ( 'creation_date' ) ;
#90 = COORDINATED_UNIVERSAL_TIME_OFFSET ( 1, 0, .AHEAD. ) ;
#91 = EDGE_CURVE ( 'NONE', #100, #100, #195, .T. ) ;
#92 = ORGANIZATION ( 'UNSPECIFIED', 'UNSPECIFIED', '' ) ;
#93 = DIRECTION ( 'NONE',  ( 0.0000000000000000000, 1.000000000000000000, 0.0000000000000000000 ) ) ;
#94 = FACE_BOUND ( 'NONE', #62, .T. ) ;
#95 = DATE_TIME_ROLE ( 'classification_date' ) ;
#96 = PERSON_AND_ORGANIZATION ( #102, #92 ) ;
#97 = CARTESIAN_POINT ( 'NONE',  ( 4.559275156344871181E-14, -1.179394109197394446E-15, 13.05828304342460200 ) ) ;
#98 = FACE_OUTER_BOUND ( 'NONE', #119, .T. ) ;
#99 = PRODUCT_RELATED_PRODUCT_CATEGORY ( 'detail', '', ( #218 ) ) ;
#100 = VERTEX_POINT ( 'NONE', #80 ) ;
#101 = APPROVAL_STATUS ( 'not_yet_approved' ) ;
#102 = PERSON ( 'UNSPECIFIED', 'UNSPECIFIED', 'UNSPECIFIED', ('UNSPECIFIED'), ('UNSPECIFIED'), ('UNSPECIFIED') ) ;
#103 = DIRECTION ( 'NONE',  ( 1.764370402851507838E-30, -1.000000000000000000, 5.053357677220505557E-16 ) ) ;
#104 = PERSON_AND_ORGANIZATION ( #102, #92 ) ;
#105 = CC_DESIGN_PERSON_AND_ORGANIZATION_ASSIGNMENT ( #96, #201, ( #72 ) ) ;
#106 = AXIS2_PLACEMENT_3D ( 'NONE', #17, #71, #164 ) ;
#107 = ADVANCED_FACE ( 'NONE', ( #3 ), #225, .T. ) ;
#108 = EDGE_CURVE ( 'NONE', #151, #151, #200, .T. ) ;
#109 = SECURITY_CLASSIFICATION_LEVEL ( 'unclassified' ) ;
#110 = PLANE ( 'NONE',  #66 ) ;
#111 = FACE_OUTER_BOUND ( 'NONE', #233, .T. ) ;
#112 = CC_DESIGN_SECURITY_CLASSIFICATION ( #16, ( #72 ) ) ;
#113 = DIRECTION ( 'NONE',  ( -3.491481338843133355E-15, 9.031770143711729009E-17, -1.000000000000000000 ) ) ;
#114 = PLANE ( 'NONE',  #184 ) ;
#115 = AXIS2_PLACEMENT_3D ( 'NONE', #181, #15, #93 ) ;
#116 = CYLINDRICAL_SURFACE ( 'NONE', #122, 1.999999999999993561 ) ;
#117 = CARTESIAN_POINT ( 'NONE',  ( 4.885231259955590439E-14, 1.999999999999990452, 13.99185842870425134 ) ) ;
#118 = ORIENTED_EDGE ( 'NONE', *, *, #91, .F. ) ;
#119 = EDGE_LOOP ( 'NONE', ( #1 ) ) ;
#120 = PERSON_AND_ORGANIZATION ( #102, #92 ) ;
#121 = EDGE_LOOP ( 'NONE', ( #118 ) ) ;
#122 = AXIS2_PLACEMENT_3D ( 'NONE', #23, #149, #61 ) ;
#123 = ADVANCED_FACE ( 'NONE', ( #199 ), #110, .T. ) ;
#124 = PERSON_AND_ORGANIZATION_ROLE ( 'design_owner' ) ;
#125 = MANIFOLD_SOLID_BREP ( 'Corps-Déplacer/Copier1[1]', #145 ) ;
#126 = AXIS2_PLACEMENT_3D ( 'NONE', #75, #220, #36 ) ;
#127 = CIRCLE ( 'NONE', #146, 2.538999999999999702 ) ;
#128 = UNCERTAINTY_MEASURE_WITH_UNIT (LENGTH_MEASURE( 1.000000000000000082E-05 ), #206, 'distance_accuracy_value', 'NONE');
#129 = AXIS2_PLACEMENT_3D ( 'NONE', #139, #52, #228 ) ;
#130 = DIRECTION ( 'NONE',  ( 3.153425691349006731E-31, 1.000000000000000000, 9.031770143711729009E-17 ) ) ;
#131 = DIRECTION ( 'NONE',  ( 0.0000000000000000000, 1.000000000000000000, 0.0000000000000000000 ) ) ;
#132 = AXIS2_PLACEMENT_3D ( 'NONE', #196, #178, #176 ) ;
#133 = VERTEX_POINT ( 'NONE', #170 ) ;
#134 = ORIENTED_EDGE ( 'NONE', *, *, #108, .T. ) ;
#135 = AXIS2_PLACEMENT_3D ( 'NONE', #239, #198, #157 ) ;
#136 = CALENDAR_DATE ( 2021, 26, 11 ) ;
#137 = CC_DESIGN_PERSON_AND_ORGANIZATION_ASSIGNMENT ( #143, #204, ( #72 ) ) ;
#138 = PERSON_AND_ORGANIZATION_ROLE ( 'creator' ) ;
#139 = CARTESIAN_POINT ( 'NONE',  ( 4.559275156344871181E-14, -1.179394109197394446E-15, 13.05828304342460200 ) ) ;
#140 = FACE_OUTER_BOUND ( 'NONE', #180, .T. ) ;
#141 = EDGE_CURVE ( 'NONE', #133, #133, #161, .T. ) ;
#142 = DESIGN_CONTEXT ( 'detailed design', #78, 'design' ) ;
#143 = PERSON_AND_ORGANIZATION ( #102, #92 ) ;
#144 = VERTEX_POINT ( 'NONE', #227 ) ;
#145 = CLOSED_SHELL ( 'NONE', ( #107, #79, #217, #167, #190 ) ) ;
#146 = AXIS2_PLACEMENT_3D ( 'NONE', #97, #188, #26 ) ;
#147 = CC_DESIGN_DATE_AND_TIME_ASSIGNMENT ( #20, #95, ( #16 ) ) ;
#148 = ORIENTED_EDGE ( 'NONE', *, *, #211, .F. ) ;
#149 = DIRECTION ( 'NONE',  ( -3.491481338843133355E-15, 9.031770143711729009E-17, -1.000000000000000000 ) ) ;
#150 = ORIENTED_EDGE ( 'NONE', *, *, #141, .T. ) ;
#151 = VERTEX_POINT ( 'NONE', #231 ) ;
#152 = CONICAL_SURFACE ( 'NONE', #129, 2.538999999999999702, 0.5235987755982930425 ) ;
#153 = MECHANICAL_CONTEXT ( 'NONE', #64, 'mechanical' ) ;
#154 = CC_DESIGN_PERSON_AND_ORGANIZATION_ASSIGNMENT ( #175, #124, ( #218 ) ) ;
#155 = CLOSED_SHELL ( 'NONE', ( #222, #158, #2, #123 ) ) ;
#156 = APPROVAL_PERSON_ORGANIZATION ( #104, #18, #11 ) ;
#157 = DIRECTION ( 'NONE',  ( -2.427324073272617060E-30, 1.000000000000000000, -6.832309869936245451E-16 ) ) ;
#158 = ADVANCED_FACE ( 'NONE', ( #140, #111 ), #226, .T. ) ;
#159 = CARTESIAN_POINT ( 'NONE',  ( 1.396592535537257681E-15, 2.021343070888208780E-16, 0.4000000000000012434 ) ) ;
#160 = DIRECTION ( 'NONE',  ( -3.491481338843133355E-15, 9.031770143711729009E-17, -1.000000000000000000 ) ) ;
#161 = CIRCLE ( 'NONE', #242, 2.308059892324148876 ) ;
#162 = EDGE_CURVE ( 'NONE', #212, #212, #60, .T. ) ;
#163 = LOCAL_TIME ( 11, 3, 32.00000000000000000, #205 ) ;
#164 = DIRECTION ( 'NONE',  ( -3.153425691349006731E-31, -1.000000000000000000, -9.031770143711729009E-17 ) ) ;
#165 = FACE_OUTER_BOUND ( 'NONE', #46, .T. ) ;
#166 = PLANE ( 'NONE',  #172 ) ;
#167 = ADVANCED_FACE ( 'NONE', ( #221, #238 ), #152, .T. ) ;
#168 = FACE_OUTER_BOUND ( 'NONE', #173, .T. ) ;
#169 = ORIENTED_EDGE ( 'NONE', *, *, #162, .T. ) ;
#170 = CARTESIAN_POINT ( 'NONE',  ( 0.0000000000000000000, 2.308059892324148876, 0.0000000000000000000 ) ) ;
#171 = CONICAL_SURFACE ( 'NONE', #132, 2.308059892324148876, 0.5235987755982978165 ) ;
#172 = AXIS2_PLACEMENT_3D ( 'NONE', #77, #28, #103 ) ;
#173 = EDGE_LOOP ( 'NONE', ( #30 ) ) ;
#174 = FACE_OUTER_BOUND ( 'NONE', #10, .T. ) ;
#175 = PERSON_AND_ORGANIZATION ( #102, #92 ) ;
#176 = DIRECTION ( 'NONE',  ( 1.764370402851507838E-30, -1.000000000000000000, 5.053357677220505557E-16 ) ) ;
#177 = DIRECTION ( 'NONE',  ( 1.000000000000000000, 0.0000000000000000000, 0.0000000000000000000 ) ) ;
#178 = DIRECTION ( 'NONE',  ( 3.491481338843133355E-15, 5.053357677220505557E-16, 1.000000000000000000 ) ) ;
#179 = APPROVAL_PERSON_ORGANIZATION ( #120, #12, #83 ) ;
#180 = EDGE_LOOP ( 'NONE', ( #134 ) ) ;
#181 = CARTESIAN_POINT ( 'NONE',  ( 4.885231259955590439E-14, -1.263712492114123682E-15, 13.99185842870425134 ) ) ;
#182 = DIRECTION ( 'NONE',  ( -3.491481338843133355E-15, -5.053357677220505557E-16, -1.000000000000000000 ) ) ;
#183 = PERSON_AND_ORGANIZATION_ROLE ( 'classification_officer' ) ;
#184 = AXIS2_PLACEMENT_3D ( 'NONE', #7, #113, #130 ) ;
#185 = CC_DESIGN_APPROVAL ( #187, ( #72 ) ) ;
#186 = DIRECTION ( 'NONE',  ( -3.491481338843133355E-15, -5.053357677220505557E-16, -1.000000000000000000 ) ) ;
#187 = APPROVAL ( #81, 'UNSPECIFIED' ) ;
#188 = DIRECTION ( 'NONE',  ( -3.491481338843133355E-15, 9.031770143711729009E-17, -1.000000000000000000 ) ) ;
#189 = CARTESIAN_POINT ( 'NONE',  ( 1.396592535537253342E-15, 2.538999999999998813, 0.3999999999999999667 ) ) ;
#190 = ADVANCED_FACE ( 'NONE', ( #98 ), #114, .T. ) ;
#191 = VERTEX_POINT ( 'NONE', #9 ) ;
#192 = EDGE_LOOP ( 'NONE', ( #84 ) ) ;
#193 = COORDINATED_UNIVERSAL_TIME_OFFSET ( 1, 0, .AHEAD. ) ;
#194 = PERSON_AND_ORGANIZATION ( #102, #92 ) ;
#195 = CIRCLE ( 'NONE', #8, 1.599999999999994982 ) ;
#196 = CARTESIAN_POINT ( 'NONE',  ( 4.072272562025366335E-30, 5.893959559830792678E-31, 1.166345217636097225E-15 ) ) ;
#197 = EDGE_CURVE ( 'NONE', #191, #191, #230, .T. ) ;
#198 = DIRECTION ( 'NONE',  ( -3.491481338843133355E-15, -5.053357677220505557E-16, -1.000000000000000000 ) ) ;
#199 = FACE_OUTER_BOUND ( 'NONE', #214, .T. ) ;
#200 = CIRCLE ( 'NONE', #135, 2.538999999999991708 ) ;
#201 = PERSON_AND_ORGANIZATION_ROLE ( 'creator' ) ;
#202 = EDGE_LOOP ( 'NONE', ( #169 ) ) ;
#203 = DIRECTION ( 'NONE',  ( -3.491481338843133355E-15, -5.053357677220505557E-16, -1.000000000000000000 ) ) ;
#204 = PERSON_AND_ORGANIZATION_ROLE ( 'design_supplier' ) ;
#205 = COORDINATED_UNIVERSAL_TIME_OFFSET ( 1, 0, .AHEAD. ) ;
#206 =( LENGTH_UNIT ( ) NAMED_UNIT ( * ) SI_UNIT ( .MILLI., .METRE. ) );
#207 = CC_DESIGN_DATE_AND_TIME_ASSIGNMENT ( #35, #89, ( #63 ) ) ;
#208 = CALENDAR_DATE ( 2021, 26, 11 ) ;
#209 = CC_DESIGN_APPROVAL ( #12, ( #16 ) ) ;
#210 = VERTEX_POINT ( 'NONE', #189 ) ;
#211 = EDGE_CURVE ( 'NONE', #144, #144, #127, .T. ) ;
#212 = VERTEX_POINT ( 'NONE', #117 ) ;
#213 = ORIENTED_EDGE ( 'NONE', *, *, #197, .T. ) ;
#214 = EDGE_LOOP ( 'NONE', ( #150 ) ) ;
#215 = AXIS2_PLACEMENT_3D ( 'NONE', #237, #31, #177 ) ;
#216 = DATE_AND_TIME ( #136, #14 ) ;
#217 = ADVANCED_FACE ( 'NONE', ( #41, #168 ), #116, .T. ) ;
#218 = PRODUCT ( '321411', '321411', '', ( #153 ) ) ;
#219 =( GEOMETRIC_REPRESENTATION_CONTEXT ( 3 ) GLOBAL_UNCERTAINTY_ASSIGNED_CONTEXT ( ( #128 ) ) GLOBAL_UNIT_ASSIGNED_CONTEXT ( ( #206, #85, #34 ) ) REPRESENTATION_CONTEXT ( 'NONE', 'WORKASPACE' ) );
#220 = DIRECTION ( 'NONE',  ( -3.491481338843133355E-15, -5.053357677220505557E-16, -1.000000000000000000 ) ) ;
#221 = FACE_BOUND ( 'NONE', #202, .T. ) ;
#222 = ADVANCED_FACE ( 'NONE', ( #59 ), #166, .T. ) ;
#223 = CARTESIAN_POINT ( 'NONE',  ( 2.779219145719134403E-13, -7.189289034394536528E-15, 79.60000000000000853 ) ) ;
#224 = CIRCLE ( 'NONE', #50, 2.538999999999998813 ) ;
#225 = PLANE ( 'NONE',  #106 ) ;
#226 = CYLINDRICAL_SURFACE ( 'NONE', #126, 2.538999999999995261 ) ;
#227 = CARTESIAN_POINT ( 'NONE',  ( 4.559275156344871181E-14, 2.538999999999998369, 13.05828304342460200 ) ) ;
#228 = DIRECTION ( 'NONE',  ( 0.0000000000000000000, 1.000000000000000000, 0.0000000000000000000 ) ) ;
#229 = ADVANCED_BREP_SHAPE_REPRESENTATION ( '321411', ( #125, #39, #215 ), #219 ) ;
#230 = CIRCLE ( 'NONE', #51, 1.999999999999995337 ) ;
#231 = CARTESIAN_POINT ( 'NONE',  ( 4.559275156344871181E-14, 2.538999999999998369, 13.05828304342460200 ) ) ;
#232 = ORIENTED_EDGE ( 'NONE', *, *, #197, .F. ) ;
#233 = EDGE_LOOP ( 'NONE', ( #22 ) ) ;
#234 = CC_DESIGN_PERSON_AND_ORGANIZATION_ASSIGNMENT ( #54, #183, ( #16 ) ) ;
#235 = CONICAL_SURFACE ( 'NONE', #4, 1.999999999999995337, 0.7853981633974516097 ) ;
#236 = FACE_BOUND ( 'NONE', #29, .T. ) ;
#237 = CARTESIAN_POINT ( 'NONE',  ( 0.0000000000000000000, 0.0000000000000000000, 0.0000000000000000000 ) ) ;
#238 = FACE_OUTER_BOUND ( 'NONE', #43, .T. ) ;
#239 = CARTESIAN_POINT ( 'NONE',  ( 4.559275156344871812E-14, 6.598817486880805984E-15, 13.05828304342460200 ) ) ;
#240 = CALENDAR_DATE ( 2021, 26, 11 ) ;
#241 = CARTESIAN_POINT ( 'NONE',  ( 2.793185071074506684E-13, -7.225416114969383207E-15, 80.00000000000000000 ) ) ;
#242 = AXIS2_PLACEMENT_3D ( 'NONE', #55, #186, #38 ) ;
#243 = CARTESIAN_POINT ( 'NONE',  ( -2.036136281012683167E-30, 2.308059892324148876, -5.831726088180486125E-16 ) ) ;
ENDSEC;
END-ISO-10303-21;
