ISO-10303-21;
HEADER;
FILE_DESCRIPTION (( 'STEP AP203' ),
    '1' );
FILE_NAME ('321410.step',
    '2021-11-26T10:03:32',
    ( '' ),
    ( '' ),
    'SwSTEP 2.0',
    'SolidWorks 2019',
    '' );
FILE_SCHEMA (( 'CONFIG_CONTROL_DESIGN' ));
ENDSEC;

DATA;
#1 = ADVANCED_FACE ( 'NONE', ( #37 ), #57, .T. ) ;
#2 = AXIS2_PLACEMENT_3D ( 'NONE', #120, #195, #178 ) ;
#3 = PRODUCT_DEFINITION_SHAPE ( 'NONE', 'NONE',  #144 ) ;
#4 = PERSON_AND_ORGANIZATION ( #101, #225 ) ;
#5 = EDGE_LOOP ( 'NONE', ( #238 ) ) ;
#6 =( NAMED_UNIT ( * ) PLANE_ANGLE_UNIT ( ) SI_UNIT ( $, .RADIAN. ) );
#7 = CARTESIAN_POINT ( 'NONE',  ( 4.562298867881148686E-14, 6.596696336403361418E-15, 13.06694329746244421 ) ) ;
#8 = CALENDAR_DATE ( 2021, 26, 11 ) ;
#9 = DIRECTION ( 'NONE',  ( 1.762634277370743799E-30, -1.000000000000000000, 5.048385216215346574E-16 ) ) ;
#10 = CARTESIAN_POINT ( 'NONE',  ( 4.562298867881149317E-14, 2.533999999999998032, 13.06694329746244598 ) ) ;
#11 = ADVANCED_FACE ( 'NONE', ( #137 ), #47, .T. ) ;
#12 = AXIS2_PLACEMENT_3D ( 'NONE', #127, #156, #236 ) ;
#13 = EDGE_LOOP ( 'NONE', ( #84 ) ) ;
#14 = ORIENTED_EDGE ( 'NONE', *, *, #217, .F. ) ;
#15 = APPROVAL_ROLE ( '' ) ;
#16 = DESIGN_CONTEXT ( 'detailed design', #139, 'design' ) ;
#17 = ORIENTED_EDGE ( 'NONE', *, *, #148, .F. ) ;
#18 = AXIS2_PLACEMENT_3D ( 'NONE', #231, #196, #142 ) ;
#19 = ADVANCED_BREP_SHAPE_REPRESENTATION ( '321410', ( #122, #44, #18 ), #138 ) ;
#20 = PRODUCT ( '321410', '321410', '', ( #233 ) ) ;
#21 = DIRECTION ( 'NONE',  ( -3.153425691349006731E-31, -1.000000000000000000, -9.031770143711729009E-17 ) ) ;
#22 = DATE_AND_TIME ( #157, #58 ) ;
#23 = FACE_OUTER_BOUND ( 'NONE', #133, .T. ) ;
#24 = CONICAL_SURFACE ( 'NONE', #99, 2.533999999999999364, 0.5235987755982931535 ) ;
#25 = PERSON_AND_ORGANIZATION ( #101, #225 ) ;
#26 = COORDINATED_UNIVERSAL_TIME_OFFSET ( 1, 0, .AHEAD. ) ;
#27 = CYLINDRICAL_SURFACE ( 'NONE', #121, 2.533999999999994923 ) ;
#28 = PERSON_AND_ORGANIZATION_ROLE ( 'design_owner' ) ;
#29 = DATE_TIME_ROLE ( 'classification_date' ) ;
#30 = APPROVAL_STATUS ( 'not_yet_approved' ) ;
#31 = CARTESIAN_POINT ( 'NONE',  ( 0.0000000000000000000, 0.0000000000000000000, 0.0000000000000000000 ) ) ;
#32 = DIRECTION ( 'NONE',  ( 3.153425691349006731E-31, 1.000000000000000000, 9.031770143711729009E-17 ) ) ;
#33 = APPROVAL_PERSON_ORGANIZATION ( #230, #176, #108 ) ;
#34 = COORDINATED_UNIVERSAL_TIME_OFFSET ( 1, 0, .AHEAD. ) ;
#35 = DIRECTION ( 'NONE',  ( -2.432113584072287211E-30, 1.000000000000000000, -6.845791144344171363E-16 ) ) ;
#36 = CARTESIAN_POINT ( 'NONE',  ( 4.562298867881149317E-14, -1.180176283435954137E-15, 13.06694329746244598 ) ) ;
#37 = FACE_OUTER_BOUND ( 'NONE', #76, .T. ) ;
#38 = DIRECTION ( 'NONE',  ( 0.0000000000000000000, 1.000000000000000000, 0.0000000000000000000 ) ) ;
#39 = CARTESIAN_POINT ( 'NONE',  ( 2.793185071074506684E-13, -7.225416114969383207E-15, 80.00000000000000000 ) ) ;
#40 = EDGE_LOOP ( 'NONE', ( #241 ) ) ;
#41 = CC_DESIGN_APPROVAL ( #176, ( #140 ) ) ;
#42 = PERSON_AND_ORGANIZATION_ROLE ( 'creator' ) ;
#43 = ORIENTED_EDGE ( 'NONE', *, *, #91, .F. ) ;
#44 = MANIFOLD_SOLID_BREP ( 'Corps-Déplacer/Copier1[2]', #78 ) ;
#45 = EDGE_LOOP ( 'NONE', ( #151 ) ) ;
#46 = APPROVAL_PERSON_ORGANIZATION ( #165, #189, #15 ) ;
#47 = PLANE ( 'NONE',  #73 ) ;
#48 = VERTEX_POINT ( 'NONE', #135 ) ;
#49 = AXIS2_PLACEMENT_3D ( 'NONE', #203, #65, #206 ) ;
#50 = ORIENTED_EDGE ( 'NONE', *, *, #75, .T. ) ;
#51 = FACE_BOUND ( 'NONE', #237, .T. ) ;
#52 = ADVANCED_FACE ( 'NONE', ( #162, #74 ), #27, .T. ) ;
#53 = PERSON_AND_ORGANIZATION ( #101, #225 ) ;
#54 = CC_DESIGN_APPROVAL ( #189, ( #144 ) ) ;
#55 = CC_DESIGN_PERSON_AND_ORGANIZATION_ASSIGNMENT ( #188, #223, ( #126 ) ) ;
#56 = VERTEX_POINT ( 'NONE', #211 ) ;
#57 = PLANE ( 'NONE',  #207 ) ;
#58 = LOCAL_TIME ( 11, 3, 32.00000000000000000, #134 ) ;
#59 = CC_DESIGN_DATE_AND_TIME_ASSIGNMENT ( #198, #29, ( #126 ) ) ;
#60 = EDGE_LOOP ( 'NONE', ( #50 ) ) ;
#61 = EDGE_LOOP ( 'NONE', ( #14 ) ) ;
#62 = ADVANCED_FACE ( 'NONE', ( #96, #146 ), #97, .T. ) ;
#63 = AXIS2_PLACEMENT_3D ( 'NONE', #169, #239, #80 ) ;
#64 = CALENDAR_DATE ( 2021, 26, 11 ) ;
#65 = DIRECTION ( 'NONE',  ( -3.491481338843133355E-15, -5.048385216215346574E-16, -1.000000000000000000 ) ) ;
#66 = CC_DESIGN_DATE_AND_TIME_ASSIGNMENT ( #22, #92, ( #144 ) ) ;
#67 = AXIS2_PLACEMENT_3D ( 'NONE', #171, #130, #35 ) ;
#68 = DIRECTION ( 'NONE',  ( 1.762634277370744149E-30, -1.000000000000000000, 5.048385216215346574E-16 ) ) ;
#69 = ADVANCED_FACE ( 'NONE', ( #23 ), #89, .T. ) ;
#70 = CALENDAR_DATE ( 2021, 26, 11 ) ;
#71 = DATE_AND_TIME ( #8, #106 ) ;
#72 = DIRECTION ( 'NONE',  ( -3.491481338843133355E-15, 9.031770143711729009E-17, -1.000000000000000000 ) ) ;
#73 = AXIS2_PLACEMENT_3D ( 'NONE', #175, #161, #209 ) ;
#74 = FACE_OUTER_BOUND ( 'NONE', #208, .T. ) ;
#75 = EDGE_CURVE ( 'NONE', #168, #168, #166, .T. ) ;
#76 = EDGE_LOOP ( 'NONE', ( #159 ) ) ;
#77 = EDGE_LOOP ( 'NONE', ( #17 ) ) ;
#78 = CLOSED_SHELL ( 'NONE', ( #118, #52, #104, #11 ) ) ;
#79 = AXIS2_PLACEMENT_3D ( 'NONE', #216, #204, #68 ) ;
#80 = DIRECTION ( 'NONE',  ( 0.0000000000000000000, 1.000000000000000000, 0.0000000000000000000 ) ) ;
#81 = UNCERTAINTY_MEASURE_WITH_UNIT (LENGTH_MEASURE( 1.000000000000000082E-05 ), #95, 'distance_accuracy_value', 'NONE');
#82 = APPROVAL_DATE_TIME ( #170, #189 ) ;
#83 = DIRECTION ( 'NONE',  ( -3.491481338843133355E-15, 9.031770143711729009E-17, -1.000000000000000000 ) ) ;
#84 = ORIENTED_EDGE ( 'NONE', *, *, #129, .T. ) ;
#85 = AXIS2_PLACEMENT_3D ( 'NONE', #119, #227, #191 ) ;
#86 = DIRECTION ( 'NONE',  ( -1.748081638551951496E-30, 1.000000000000000000, -5.134343358258113977E-16 ) ) ;
#87 = EDGE_CURVE ( 'NONE', #123, #123, #222, .T. ) ;
#88 = CARTESIAN_POINT ( 'NONE',  ( 2.779219145719134403E-13, 1.999999999999988010, 79.60000000000000853 ) ) ;
#89 = PLANE ( 'NONE',  #2 ) ;
#90 = CYLINDRICAL_SURFACE ( 'NONE', #111, 1.999999999999993561 ) ;
#91 = EDGE_CURVE ( 'NONE', #103, #103, #186, .T. ) ;
#92 = DATE_TIME_ROLE ( 'creation_date' ) ;
#93 = DATE_AND_TIME ( #234, #229 ) ;
#94 = CC_DESIGN_SECURITY_CLASSIFICATION ( #126, ( #140 ) ) ;
#95 =( LENGTH_UNIT ( ) NAMED_UNIT ( * ) SI_UNIT ( .MILLI., .METRE. ) );
#96 = FACE_BOUND ( 'NONE', #60, .T. ) ;
#97 = CONICAL_SURFACE ( 'NONE', #12, 1.999999999999995337, 0.7853981633974516097 ) ;
#98 = PLANE ( 'NONE',  #183 ) ;
#99 = AXIS2_PLACEMENT_3D ( 'NONE', #112, #83, #155 ) ;
#100 = CIRCLE ( 'NONE', #153, 2.533999999999999364 ) ;
#101 = PERSON ( 'UNSPECIFIED', 'UNSPECIFIED', 'UNSPECIFIED', ('UNSPECIFIED'), ('UNSPECIFIED'), ('UNSPECIFIED') ) ;
#102 = FACE_OUTER_BOUND ( 'NONE', #13, .T. ) ;
#103 = VERTEX_POINT ( 'NONE', #160 ) ;
#104 = ADVANCED_FACE ( 'NONE', ( #102, #51 ), #210, .T. ) ;
#105 = APPROVAL_DATE_TIME ( #93, #232 ) ;
#106 = LOCAL_TIME ( 11, 3, 32.00000000000000000, #214 ) ;
#107 = APPLICATION_PROTOCOL_DEFINITION ( 'international standard', 'config_control_design', 1994, #139 ) ;
#108 = APPROVAL_ROLE ( '' ) ;
#109 = APPLICATION_PROTOCOL_DEFINITION ( 'international standard', 'config_control_design', 1994, #128 ) ;
#110 = ADVANCED_FACE ( 'NONE', ( #228, #192 ), #90, .T. ) ;
#111 = AXIS2_PLACEMENT_3D ( 'NONE', #164, #72, #32 ) ;
#112 = CARTESIAN_POINT ( 'NONE',  ( 4.562298867881149317E-14, -1.180176283435954137E-15, 13.06694329746244598 ) ) ;
#113 = EDGE_LOOP ( 'NONE', ( #114 ) ) ;
#114 = ORIENTED_EDGE ( 'NONE', *, *, #172, .T. ) ;
#115 = CC_DESIGN_APPROVAL ( #232, ( #126 ) ) ;
#116 = ORIENTED_EDGE ( 'NONE', *, *, #148, .T. ) ;
#117 = VERTEX_POINT ( 'NONE', #158 ) ;
#118 = ADVANCED_FACE ( 'NONE', ( #181 ), #98, .T. ) ;
#119 = CARTESIAN_POINT ( 'NONE',  ( 2.779219145719134403E-13, -7.189289034394536528E-15, 79.60000000000000853 ) ) ;
#120 = CARTESIAN_POINT ( 'NONE',  ( 4.562298867881148686E-14, 2.533999999999998032, 13.06694329746244421 ) ) ;
#121 = AXIS2_PLACEMENT_3D ( 'NONE', #31, #212, #180 ) ;
#122 = MANIFOLD_SOLID_BREP ( 'Corps-Déplacer/Copier1[1]', #182 ) ;
#123 = VERTEX_POINT ( 'NONE', #88 ) ;
#124 = APPROVAL_STATUS ( 'not_yet_approved' ) ;
#125 = PERSON_AND_ORGANIZATION_ROLE ( 'creator' ) ;
#126 = SECURITY_CLASSIFICATION ( '', '', #242 ) ;
#127 = CARTESIAN_POINT ( 'NONE',  ( 2.779219145719134403E-13, -7.189289034394536528E-15, 79.60000000000000853 ) ) ;
#128 = APPLICATION_CONTEXT ( 'configuration controlled 3d designs of mechanical parts and assemblies' ) ;
#129 = EDGE_CURVE ( 'NONE', #48, #48, #173, .T. ) ;
#130 = DIRECTION ( 'NONE',  ( -3.491481338843133355E-15, -5.048385216215346574E-16, -1.000000000000000000 ) ) ;
#131 = AXIS2_PLACEMENT_3D ( 'NONE', #147, #213, #86 ) ;
#132 = EDGE_LOOP ( 'NONE', ( #218 ) ) ;
#133 = EDGE_LOOP ( 'NONE', ( #116 ) ) ;
#134 = COORDINATED_UNIVERSAL_TIME_OFFSET ( 1, 0, .AHEAD. ) ;
#135 = CARTESIAN_POINT ( 'NONE',  ( 1.396592535537253342E-15, 2.533999999999998476, 0.3999999999999999667 ) ) ;
#136 = DIRECTION ( 'NONE',  ( 3.491481338843133355E-15, -9.031770143711729009E-17, 1.000000000000000000 ) ) ;
#137 = FACE_OUTER_BOUND ( 'NONE', #40, .T. ) ;
#138 =( GEOMETRIC_REPRESENTATION_CONTEXT ( 3 ) GLOBAL_UNCERTAINTY_ASSIGNED_CONTEXT ( ( #81 ) ) GLOBAL_UNIT_ASSIGNED_CONTEXT ( ( #95, #6, #179 ) ) REPRESENTATION_CONTEXT ( 'NONE', 'WORKASPACE' ) );
#139 = APPLICATION_CONTEXT ( 'configuration controlled 3d designs of mechanical parts and assemblies' ) ;
#140 = PRODUCT_DEFINITION_FORMATION_WITH_SPECIFIED_SOURCE ( 'ANY', '', #20, .NOT_KNOWN. ) ;
#141 = SHAPE_DEFINITION_REPRESENTATION ( #3, #19 ) ;
#142 = DIRECTION ( 'NONE',  ( 1.000000000000000000, 0.0000000000000000000, 0.0000000000000000000 ) ) ;
#143 = APPROVAL_DATE_TIME ( #71, #176 ) ;
#144 = PRODUCT_DEFINITION ( 'UNKNOWN', '', #140, #16 ) ;
#145 = DIRECTION ( 'NONE',  ( 3.491481338843133355E-15, 5.048385216215346574E-16, 1.000000000000000000 ) ) ;
#146 = FACE_OUTER_BOUND ( 'NONE', #5, .T. ) ;
#147 = CARTESIAN_POINT ( 'NONE',  ( 1.396592535537257681E-15, 2.019354086486145088E-16, 0.4000000000000012434 ) ) ;
#148 = EDGE_CURVE ( 'NONE', #117, #117, #100, .T. ) ;
#149 = DIRECTION ( 'NONE',  ( -3.491481338843133355E-15, 9.031770143711729009E-17, -1.000000000000000000 ) ) ;
#150 = CC_DESIGN_PERSON_AND_ORGANIZATION_ASSIGNMENT ( #201, #42, ( #144 ) ) ;
#151 = ORIENTED_EDGE ( 'NONE', *, *, #217, .T. ) ;
#152 = DIRECTION ( 'NONE',  ( -3.491481338843133355E-15, 9.031770143711729009E-17, -1.000000000000000000 ) ) ;
#153 = AXIS2_PLACEMENT_3D ( 'NONE', #36, #152, #38 ) ;
#154 = ORIENTED_EDGE ( 'NONE', *, *, #129, .F. ) ;
#155 = DIRECTION ( 'NONE',  ( 0.0000000000000000000, 1.000000000000000000, 0.0000000000000000000 ) ) ;
#156 = DIRECTION ( 'NONE',  ( -3.491481338843133355E-15, 9.031770143711729009E-17, -1.000000000000000000 ) ) ;
#157 = CALENDAR_DATE ( 2021, 26, 11 ) ;
#158 = CARTESIAN_POINT ( 'NONE',  ( 4.562298867881149317E-14, 2.533999999999998032, 13.06694329746244598 ) ) ;
#159 = ORIENTED_EDGE ( 'NONE', *, *, #75, .F. ) ;
#160 = CARTESIAN_POINT ( 'NONE',  ( 0.0000000000000000000, 2.303059892324148539, 0.0000000000000000000 ) ) ;
#161 = DIRECTION ( 'NONE',  ( -3.491481338843133355E-15, -5.048385216215346574E-16, -1.000000000000000000 ) ) ;
#162 = FACE_OUTER_BOUND ( 'NONE', #45, .T. ) ;
#163 = APPROVAL_STATUS ( 'not_yet_approved' ) ;
#164 = CARTESIAN_POINT ( 'NONE',  ( 0.0000000000000000000, 0.0000000000000000000, 0.0000000000000000000 ) ) ;
#165 = PERSON_AND_ORGANIZATION ( #101, #225 ) ;
#166 = CIRCLE ( 'NONE', #202, 1.599999999999994982 ) ;
#167 = ORIENTED_EDGE ( 'NONE', *, *, #87, .T. ) ;
#168 = VERTEX_POINT ( 'NONE', #220 ) ;
#169 = CARTESIAN_POINT ( 'NONE',  ( 4.885231259955590439E-14, -1.263712492114123682E-15, 13.99185842870425134 ) ) ;
#170 = DATE_AND_TIME ( #64, #215 ) ;
#171 = CARTESIAN_POINT ( 'NONE',  ( 4.562298867881149948E-14, 6.596696336403363784E-15, 13.06694329746244776 ) ) ;
#172 = EDGE_CURVE ( 'NONE', #56, #56, #226, .T. ) ;
#173 = CIRCLE ( 'NONE', #131, 2.533999999999998476 ) ;
#174 = PERSON_AND_ORGANIZATION_ROLE ( 'design_supplier' ) ;
#175 = CARTESIAN_POINT ( 'NONE',  ( -2.029726154524159683E-30, 2.303059892324148539, -5.813366756233869794E-16 ) ) ;
#176 = APPROVAL ( #163, 'UNSPECIFIED' ) ;
#177 = APPROVAL_PERSON_ORGANIZATION ( #4, #232, #194 ) ;
#178 = DIRECTION ( 'NONE',  ( 3.153425691349006731E-31, 1.000000000000000000, 9.031770143711729009E-17 ) ) ;
#179 =( NAMED_UNIT ( * ) SI_UNIT ( $, .STERADIAN. ) SOLID_ANGLE_UNIT ( ) );
#180 = DIRECTION ( 'NONE',  ( -1.762634277370744149E-30, 1.000000000000000000, -5.048385216215347560E-16 ) ) ;
#181 = FACE_OUTER_BOUND ( 'NONE', #61, .T. ) ;
#182 = CLOSED_SHELL ( 'NONE', ( #1, #62, #110, #243, #69 ) ) ;
#183 = AXIS2_PLACEMENT_3D ( 'NONE', #7, #145, #9 ) ;
#184 = VERTEX_POINT ( 'NONE', #10 ) ;
#185 = CC_DESIGN_PERSON_AND_ORGANIZATION_ASSIGNMENT ( #53, #125, ( #140 ) ) ;
#186 = CIRCLE ( 'NONE', #49, 2.303059892324148539 ) ;
#187 = FACE_BOUND ( 'NONE', #113, .T. ) ;
#188 = PERSON_AND_ORGANIZATION ( #101, #225 ) ;
#189 = APPROVAL ( #30, 'UNSPECIFIED' ) ;
#190 = PRODUCT_RELATED_PRODUCT_CATEGORY ( 'detail', '', ( #20 ) ) ;
#191 = DIRECTION ( 'NONE',  ( 0.0000000000000000000, 1.000000000000000000, 0.0000000000000000000 ) ) ;
#192 = FACE_OUTER_BOUND ( 'NONE', #132, .T. ) ;
#193 = CIRCLE ( 'NONE', #67, 2.533999999999991370 ) ;
#194 = APPROVAL_ROLE ( '' ) ;
#195 = DIRECTION ( 'NONE',  ( -3.491481338843133355E-15, 9.031770143711729009E-17, -1.000000000000000000 ) ) ;
#196 = DIRECTION ( 'NONE',  ( 0.0000000000000000000, 0.0000000000000000000, 1.000000000000000000 ) ) ;
#197 = PERSON_AND_ORGANIZATION ( #101, #225 ) ;
#198 = DATE_AND_TIME ( #70, #199 ) ;
#199 = LOCAL_TIME ( 11, 3, 32.00000000000000000, #205 ) ;
#200 = DIRECTION ( 'NONE',  ( 0.0000000000000000000, 1.000000000000000000, 0.0000000000000000000 ) ) ;
#201 = PERSON_AND_ORGANIZATION ( #101, #225 ) ;
#202 = AXIS2_PLACEMENT_3D ( 'NONE', #235, #149, #200 ) ;
#203 = CARTESIAN_POINT ( 'NONE',  ( 4.059452309048319365E-30, 5.869622957721766927E-31, 1.162673351246773959E-15 ) ) ;
#204 = DIRECTION ( 'NONE',  ( 3.491481338843133355E-15, 5.048385216215346574E-16, 1.000000000000000000 ) ) ;
#205 = COORDINATED_UNIVERSAL_TIME_OFFSET ( 1, 0, .AHEAD. ) ;
#206 = DIRECTION ( 'NONE',  ( -1.762634277370744149E-30, 1.000000000000000000, -5.048385216215346574E-16 ) ) ;
#207 = AXIS2_PLACEMENT_3D ( 'NONE', #39, #136, #21 ) ;
#208 = EDGE_LOOP ( 'NONE', ( #154 ) ) ;
#209 = DIRECTION ( 'NONE',  ( -1.762634277370743799E-30, 1.000000000000000000, -5.048385216215346574E-16 ) ) ;
#210 = CONICAL_SURFACE ( 'NONE', #79, 2.303059892324148539, 0.5235987755982978165 ) ;
#211 = CARTESIAN_POINT ( 'NONE',  ( 4.885231259955590439E-14, 1.999999999999990452, 13.99185842870425134 ) ) ;
#212 = DIRECTION ( 'NONE',  ( -3.491481338843133355E-15, -5.048385216215346574E-16, -1.000000000000000000 ) ) ;
#213 = DIRECTION ( 'NONE',  ( -3.491481338843133355E-15, -5.048385216215346574E-16, -1.000000000000000000 ) ) ;
#214 = COORDINATED_UNIVERSAL_TIME_OFFSET ( 1, 0, .AHEAD. ) ;
#215 = LOCAL_TIME ( 11, 3, 32.00000000000000000, #34 ) ;
#216 = CARTESIAN_POINT ( 'NONE',  ( 4.059452309048319365E-30, 5.869622957721766927E-31, 1.162673351246773959E-15 ) ) ;
#217 = EDGE_CURVE ( 'NONE', #184, #184, #193, .T. ) ;
#218 = ORIENTED_EDGE ( 'NONE', *, *, #172, .F. ) ;
#219 = EDGE_LOOP ( 'NONE', ( #167 ) ) ;
#220 = CARTESIAN_POINT ( 'NONE',  ( 2.793185071074506684E-13, 1.599999999999987876, 80.00000000000000000 ) ) ;
#221 = CC_DESIGN_PERSON_AND_ORGANIZATION_ASSIGNMENT ( #25, #174, ( #140 ) ) ;
#222 = CIRCLE ( 'NONE', #85, 1.999999999999995337 ) ;
#223 = PERSON_AND_ORGANIZATION_ROLE ( 'classification_officer' ) ;
#224 = CC_DESIGN_PERSON_AND_ORGANIZATION_ASSIGNMENT ( #197, #28, ( #20 ) ) ;
#225 = ORGANIZATION ( 'UNSPECIFIED', 'UNSPECIFIED', '' ) ;
#226 = CIRCLE ( 'NONE', #63, 1.999999999999991784 ) ;
#227 = DIRECTION ( 'NONE',  ( -3.491481338843133355E-15, 9.031770143711729009E-17, -1.000000000000000000 ) ) ;
#228 = FACE_OUTER_BOUND ( 'NONE', #219, .T. ) ;
#229 = LOCAL_TIME ( 11, 3, 32.00000000000000000, #26 ) ;
#230 = PERSON_AND_ORGANIZATION ( #101, #225 ) ;
#231 = CARTESIAN_POINT ( 'NONE',  ( 0.0000000000000000000, 0.0000000000000000000, 0.0000000000000000000 ) ) ;
#232 = APPROVAL ( #124, 'UNSPECIFIED' ) ;
#233 = MECHANICAL_CONTEXT ( 'NONE', #128, 'mechanical' ) ;
#234 = CALENDAR_DATE ( 2021, 26, 11 ) ;
#235 = CARTESIAN_POINT ( 'NONE',  ( 2.793185071074506684E-13, -7.225416114969383207E-15, 80.00000000000000000 ) ) ;
#236 = DIRECTION ( 'NONE',  ( 0.0000000000000000000, 1.000000000000000000, 0.0000000000000000000 ) ) ;
#237 = EDGE_LOOP ( 'NONE', ( #43 ) ) ;
#238 = ORIENTED_EDGE ( 'NONE', *, *, #87, .F. ) ;
#239 = DIRECTION ( 'NONE',  ( -3.491481338843133355E-15, 9.031770143711729009E-17, -1.000000000000000000 ) ) ;
#240 = FACE_OUTER_BOUND ( 'NONE', #77, .T. ) ;
#241 = ORIENTED_EDGE ( 'NONE', *, *, #91, .T. ) ;
#242 = SECURITY_CLASSIFICATION_LEVEL ( 'unclassified' ) ;
#243 = ADVANCED_FACE ( 'NONE', ( #187, #240 ), #24, .T. ) ;
ENDSEC;
END-ISO-10303-21;
