ISO-10303-21;
HEADER;
FILE_DESCRIPTION (( 'STEP AP203' ),
    '1' );
FILE_NAME ('321409.step',
    '2021-11-26T10:03:31',
    ( '' ),
    ( '' ),
    'SwSTEP 2.0',
    'SolidWorks 2019',
    '' );
FILE_SCHEMA (( 'CONFIG_CONTROL_DESIGN' ));
ENDSEC;

DATA;
#1 = EDGE_CURVE ( 'NONE', #44, #44, #188, .T. ) ;
#2 = ORIENTED_EDGE ( 'NONE', *, *, #15, .T. ) ;
#3 =( LENGTH_UNIT ( ) NAMED_UNIT ( * ) SI_UNIT ( .MILLI., .METRE. ) );
#4 = DIRECTION ( 'NONE',  ( -3.491481338843133355E-15, 9.031770143711729009E-17, -1.000000000000000000 ) ) ;
#5 = AXIS2_PLACEMENT_3D ( 'NONE', #223, #142, #163 ) ;
#6 = DATE_AND_TIME ( #49, #14 ) ;
#7 = DIRECTION ( 'NONE',  ( -3.491481338843133355E-15, -5.043419341946358028E-16, -1.000000000000000000 ) ) ;
#8 = EDGE_CURVE ( 'NONE', #113, #113, #232, .T. ) ;
#9 = AXIS2_PLACEMENT_3D ( 'NONE', #137, #4, #132 ) ;
#10 = CARTESIAN_POINT ( 'NONE',  ( 4.885231259955590439E-14, 1.999999999999990452, 13.99185842870425134 ) ) ;
#11 = CALENDAR_DATE ( 2021, 26, 11 ) ;
#12 = DATE_AND_TIME ( #174, #75 ) ;
#13 = EDGE_LOOP ( 'NONE', ( #206 ) ) ;
#14 = LOCAL_TIME ( 11, 3, 31.00000000000000000, #131 ) ;
#15 = EDGE_CURVE ( 'NONE', #194, #194, #17, .T. ) ;
#16 = EDGE_LOOP ( 'NONE', ( #56 ) ) ;
#17 = CIRCLE ( 'NONE', #229, 1.599999999999994982 ) ;
#18 = APPROVAL ( #124, 'UNSPECIFIED' ) ;
#19 = EDGE_LOOP ( 'NONE', ( #69 ) ) ;
#20 = APPROVAL_ROLE ( '' ) ;
#21 = DIRECTION ( 'NONE',  ( -3.491481338843133355E-15, 9.031770143711729009E-17, -1.000000000000000000 ) ) ;
#22 = ADVANCED_FACE ( 'NONE', ( #114, #147 ), #116, .T. ) ;
#23 = PERSON ( 'UNSPECIFIED', 'UNSPECIFIED', 'UNSPECIFIED', ('UNSPECIFIED'), ('UNSPECIFIED'), ('UNSPECIFIED') ) ;
#24 = APPROVAL_PERSON_ORGANIZATION ( #111, #156, #196 ) ;
#25 = PERSON_AND_ORGANIZATION_ROLE ( 'creator' ) ;
#26 = CARTESIAN_POINT ( 'NONE',  ( 2.793185071074506684E-13, -7.225416114969383207E-15, 80.00000000000000000 ) ) ;
#27 = AXIS2_PLACEMENT_3D ( 'NONE', #212, #7, #159 ) ;
#28 =( NAMED_UNIT ( * ) PLANE_ANGLE_UNIT ( ) SI_UNIT ( $, .RADIAN. ) );
#29 = ADVANCED_FACE ( 'NONE', ( #108, #189 ), #155, .T. ) ;
#30 = CARTESIAN_POINT ( 'NONE',  ( 1.396592535537257681E-15, 2.017367736778549374E-16, 0.4000000000000012434 ) ) ;
#31 = FACE_OUTER_BOUND ( 'NONE', #74, .T. ) ;
#32 = SECURITY_CLASSIFICATION ( '', '', #140 ) ;
#33 = MECHANICAL_CONTEXT ( 'NONE', #43, 'mechanical' ) ;
#34 = FACE_OUTER_BOUND ( 'NONE', #127, .T. ) ;
#35 = CARTESIAN_POINT ( 'NONE',  ( 4.565322579417426821E-14, 6.594575185925905807E-15, 13.07560355150029174 ) ) ;
#36 = ORIENTED_EDGE ( 'NONE', *, *, #161, .F. ) ;
#37 = FACE_OUTER_BOUND ( 'NONE', #19, .T. ) ;
#38 = EDGE_LOOP ( 'NONE', ( #154 ) ) ;
#39 = EDGE_LOOP ( 'NONE', ( #55 ) ) ;
#40 = APPLICATION_PROTOCOL_DEFINITION ( 'international standard', 'config_control_design', 1994, #48 ) ;
#41 = ORIENTED_EDGE ( 'NONE', *, *, #1, .T. ) ;
#42 = EDGE_LOOP ( 'NONE', ( #121 ) ) ;
#43 = APPLICATION_CONTEXT ( 'configuration controlled 3d designs of mechanical parts and assemblies' ) ;
#44 = VERTEX_POINT ( 'NONE', #150 ) ;
#45 = EDGE_LOOP ( 'NONE', ( #128 ) ) ;
#46 = DIRECTION ( 'NONE',  ( -3.491481338843133355E-15, -5.043419341946358028E-16, -1.000000000000000000 ) ) ;
#47 = CARTESIAN_POINT ( 'NONE',  ( 1.396592535537253342E-15, 2.528999999999997694, 0.3999999999999999667 ) ) ;
#48 = APPLICATION_CONTEXT ( 'configuration controlled 3d designs of mechanical parts and assemblies' ) ;
#49 = CALENDAR_DATE ( 2021, 26, 11 ) ;
#50 = AXIS2_PLACEMENT_3D ( 'NONE', #169, #64, #234 ) ;
#51 = CC_DESIGN_DATE_AND_TIME_ASSIGNMENT ( #6, #157, ( #134 ) ) ;
#52 = EDGE_LOOP ( 'NONE', ( #101 ) ) ;
#53 = CIRCLE ( 'NONE', #97, 1.999999999999991784 ) ;
#54 = ADVANCED_FACE ( 'NONE', ( #141 ), #199, .T. ) ;
#55 = ORIENTED_EDGE ( 'NONE', *, *, #161, .T. ) ;
#56 = ORIENTED_EDGE ( 'NONE', *, *, #87, .F. ) ;
#57 = PERSON_AND_ORGANIZATION ( #23, #175 ) ;
#58 = DIRECTION ( 'NONE',  ( -3.153425691349006731E-31, -1.000000000000000000, -9.031770143711729009E-17 ) ) ;
#59 = CIRCLE ( 'NONE', #70, 2.528999999999999471 ) ;
#60 = CARTESIAN_POINT ( 'NONE',  ( 4.046654702281600976E-30, 5.845363218360351062E-31, 1.159007970989877301E-15 ) ) ;
#61 = LOCAL_TIME ( 11, 3, 31.00000000000000000, #160 ) ;
#62 = CC_DESIGN_SECURITY_CLASSIFICATION ( #32, ( #122 ) ) ;
#63 = PERSON_AND_ORGANIZATION_ROLE ( 'creator' ) ;
#64 = DIRECTION ( 'NONE',  ( -3.491481338843133355E-15, 9.031770143711729009E-17, -1.000000000000000000 ) ) ;
#65 = CARTESIAN_POINT ( 'NONE',  ( 0.0000000000000000000, 0.0000000000000000000, 0.0000000000000000000 ) ) ;
#66 = FACE_OUTER_BOUND ( 'NONE', #39, .T. ) ;
#67 = CLOSED_SHELL ( 'NONE', ( #54, #22, #139, #29, #225 ) ) ;
#68 = DIRECTION ( 'NONE',  ( 0.0000000000000000000, 1.000000000000000000, 0.0000000000000000000 ) ) ;
#69 = ORIENTED_EDGE ( 'NONE', *, *, #8, .F. ) ;
#70 = AXIS2_PLACEMENT_3D ( 'NONE', #239, #71, #91 ) ;
#71 = DIRECTION ( 'NONE',  ( -3.491481338843133355E-15, 9.031770143711729009E-17, -1.000000000000000000 ) ) ;
#72 = PERSON_AND_ORGANIZATION ( #23, #175 ) ;
#73 = DIRECTION ( 'NONE',  ( 1.760900451636622388E-30, -1.000000000000000000, 5.043419341946358028E-16 ) ) ;
#74 = EDGE_LOOP ( 'NONE', ( #41 ) ) ;
#75 = LOCAL_TIME ( 11, 3, 31.00000000000000000, #95 ) ;
#76 = CARTESIAN_POINT ( 'NONE',  ( 0.0000000000000000000, 0.0000000000000000000, 0.0000000000000000000 ) ) ;
#77 = DIRECTION ( 'NONE',  ( -3.491481338843133355E-15, 9.031770143711729009E-17, -1.000000000000000000 ) ) ;
#78 = DIRECTION ( 'NONE',  ( 0.0000000000000000000, 1.000000000000000000, 0.0000000000000000000 ) ) ;
#79 = PERSON_AND_ORGANIZATION ( #23, #175 ) ;
#80 = DIRECTION ( 'NONE',  ( 1.760900451636622038E-30, -1.000000000000000000, 5.043419341946358028E-16 ) ) ;
#81 = PERSON_AND_ORGANIZATION ( #23, #175 ) ;
#82 = APPROVAL_PERSON_ORGANIZATION ( #233, #208, #98 ) ;
#83 = DIRECTION ( 'NONE',  ( -3.491481338843133355E-15, -5.043419341946358028E-16, -1.000000000000000000 ) ) ;
#84 = CONICAL_SURFACE ( 'NONE', #109, 2.298059892324148201, 0.5235987755982978165 ) ;
#85 = CYLINDRICAL_SURFACE ( 'NONE', #9, 1.999999999999993561 ) ;
#86 = PERSON_AND_ORGANIZATION ( #23, #175 ) ;
#87 = EDGE_CURVE ( 'NONE', #136, #136, #53, .T. ) ;
#88 = EDGE_CURVE ( 'NONE', #130, #130, #214, .T. ) ;
#89 = APPROVAL_PERSON_ORGANIZATION ( #57, #18, #20 ) ;
#90 = CARTESIAN_POINT ( 'NONE',  ( 4.046654702281600976E-30, 5.845363218360351062E-31, 1.159007970989877301E-15 ) ) ;
#91 = DIRECTION ( 'NONE',  ( 0.0000000000000000000, 1.000000000000000000, 0.0000000000000000000 ) ) ;
#92 = DIRECTION ( 'NONE',  ( 0.0000000000000000000, 0.0000000000000000000, 1.000000000000000000 ) ) ;
#93 = APPROVAL_DATE_TIME ( #213, #18 ) ;
#94 = CARTESIAN_POINT ( 'NONE',  ( 2.793185071074506684E-13, 1.599999999999987876, 80.00000000000000000 ) ) ;
#95 = COORDINATED_UNIVERSAL_TIME_OFFSET ( 1, 0, .AHEAD. ) ;
#96 = DATE_AND_TIME ( #182, #61 ) ;
#97 = AXIS2_PLACEMENT_3D ( 'NONE', #107, #205, #186 ) ;
#98 = APPROVAL_ROLE ( '' ) ;
#99 = DIRECTION ( 'NONE',  ( 3.491481338843133355E-15, 5.043419341946358028E-16, 1.000000000000000000 ) ) ;
#100 = ADVANCED_FACE ( 'NONE', ( #216, #228 ), #84, .T. ) ;
#101 = ORIENTED_EDGE ( 'NONE', *, *, #221, .F. ) ;
#102 = AXIS2_PLACEMENT_3D ( 'NONE', #35, #99, #73 ) ;
#103 = DESIGN_CONTEXT ( 'detailed design', #48, 'design' ) ;
#104 = CARTESIAN_POINT ( 'NONE',  ( 4.565322579417426821E-14, 2.528999999999998138, 13.07560355150029174 ) ) ;
#105 = CLOSED_SHELL ( 'NONE', ( #202, #168, #100, #215 ) ) ;
#106 = MANIFOLD_SOLID_BREP ( 'Corps-Déplacer/Copier1[2]', #105 ) ;
#107 = CARTESIAN_POINT ( 'NONE',  ( 4.885231259955590439E-14, -1.263712492114123682E-15, 13.99185842870425134 ) ) ;
#108 = FACE_BOUND ( 'NONE', #42, .T. ) ;
#109 = AXIS2_PLACEMENT_3D ( 'NONE', #60, #187, #80 ) ;
#110 = FACE_OUTER_BOUND ( 'NONE', #38, .T. ) ;
#111 = PERSON_AND_ORGANIZATION ( #23, #175 ) ;
#112 = CC_DESIGN_APPROVAL ( #18, ( #134 ) ) ;
#113 = VERTEX_POINT ( 'NONE', #47 ) ;
#114 = FACE_BOUND ( 'NONE', #151, .T. ) ;
#115 =( NAMED_UNIT ( * ) SI_UNIT ( $, .STERADIAN. ) SOLID_ANGLE_UNIT ( ) );
#116 = CONICAL_SURFACE ( 'NONE', #180, 1.999999999999995337, 0.7853981633974516097 ) ;
#117 = DIRECTION ( 'NONE',  ( -3.491481338843133355E-15, -5.043419341946358028E-16, -1.000000000000000000 ) ) ;
#118 = PERSON_AND_ORGANIZATION ( #23, #175 ) ;
#119 = APPROVAL_STATUS ( 'not_yet_approved' ) ;
#120 = ORIENTED_EDGE ( 'NONE', *, *, #88, .T. ) ;
#121 = ORIENTED_EDGE ( 'NONE', *, *, #87, .T. ) ;
#122 = PRODUCT_DEFINITION_FORMATION_WITH_SPECIFIED_SOURCE ( 'ANY', '', #129, .NOT_KNOWN. ) ;
#123 = CC_DESIGN_APPROVAL ( #208, ( #32 ) ) ;
#124 = APPROVAL_STATUS ( 'not_yet_approved' ) ;
#125 = UNCERTAINTY_MEASURE_WITH_UNIT (LENGTH_MEASURE( 1.000000000000000082E-05 ), #3, 'distance_accuracy_value', 'NONE');
#126 = PLANE ( 'NONE',  #148 ) ;
#127 = EDGE_LOOP ( 'NONE', ( #36 ) ) ;
#128 = ORIENTED_EDGE ( 'NONE', *, *, #15, .F. ) ;
#129 = PRODUCT ( '321409', '321409', '', ( #33 ) ) ;
#130 = VERTEX_POINT ( 'NONE', #177 ) ;
#131 = COORDINATED_UNIVERSAL_TIME_OFFSET ( 1, 0, .AHEAD. ) ;
#132 = DIRECTION ( 'NONE',  ( 3.153425691349006731E-31, 1.000000000000000000, 9.031770143711729009E-17 ) ) ;
#133 = DIRECTION ( 'NONE',  ( 1.000000000000000000, 0.0000000000000000000, 0.0000000000000000000 ) ) ;
#134 = PRODUCT_DEFINITION ( 'UNKNOWN', '', #122, #103 ) ;
#135 = DIRECTION ( 'NONE',  ( 0.0000000000000000000, 1.000000000000000000, 0.0000000000000000000 ) ) ;
#136 = VERTEX_POINT ( 'NONE', #10 ) ;
#137 = CARTESIAN_POINT ( 'NONE',  ( 0.0000000000000000000, 0.0000000000000000000, 0.0000000000000000000 ) ) ;
#138 = APPROVAL_DATE_TIME ( #243, #208 ) ;
#139 = ADVANCED_FACE ( 'NONE', ( #31, #172 ), #85, .T. ) ;
#140 = SECURITY_CLASSIFICATION_LEVEL ( 'unclassified' ) ;
#141 = FACE_OUTER_BOUND ( 'NONE', #45, .T. ) ;
#142 = DIRECTION ( 'NONE',  ( -3.491481338843133355E-15, -5.043419341946358028E-16, -1.000000000000000000 ) ) ;
#143 = APPROVAL_DATE_TIME ( #12, #156 ) ;
#144 = EDGE_LOOP ( 'NONE', ( #242 ) ) ;
#145 = FACE_OUTER_BOUND ( 'NONE', #236, .T. ) ;
#146 = CC_DESIGN_PERSON_AND_ORGANIZATION_ASSIGNMENT ( #72, #201, ( #129 ) ) ;
#147 = FACE_OUTER_BOUND ( 'NONE', #13, .T. ) ;
#148 = AXIS2_PLACEMENT_3D ( 'NONE', #104, #77, #152 ) ;
#149 = COORDINATED_UNIVERSAL_TIME_OFFSET ( 1, 0, .AHEAD. ) ;
#150 = CARTESIAN_POINT ( 'NONE',  ( 2.779219145719134403E-13, 1.999999999999988010, 79.60000000000000853 ) ) ;
#151 = EDGE_LOOP ( 'NONE', ( #2 ) ) ;
#152 = DIRECTION ( 'NONE',  ( 3.153425691349006731E-31, 1.000000000000000000, 9.031770143711729009E-17 ) ) ;
#153 = CARTESIAN_POINT ( 'NONE',  ( 2.779219145719134403E-13, -7.189289034394536528E-15, 79.60000000000000853 ) ) ;
#154 = ORIENTED_EDGE ( 'NONE', *, *, #221, .T. ) ;
#155 = CONICAL_SURFACE ( 'NONE', #50, 2.528999999999999471, 0.5235987755982928205 ) ;
#156 = APPROVAL ( #119, 'UNSPECIFIED' ) ;
#157 = DATE_TIME_ROLE ( 'creation_date' ) ;
#158 = CARTESIAN_POINT ( 'NONE',  ( 4.565322579417426190E-14, 2.528999999999998138, 13.07560355150028997 ) ) ;
#159 = DIRECTION ( 'NONE',  ( -2.436922033230199339E-30, 1.000000000000000000, -6.859325725491548259E-16 ) ) ;
#160 = COORDINATED_UNIVERSAL_TIME_OFFSET ( 1, 0, .AHEAD. ) ;
#161 = EDGE_CURVE ( 'NONE', #170, #170, #200, .T. ) ;
#162 = PLANE ( 'NONE',  #5 ) ;
#163 = DIRECTION ( 'NONE',  ( -1.760900451636622388E-30, 1.000000000000000000, -5.043419341946358028E-16 ) ) ;
#164 = CYLINDRICAL_SURFACE ( 'NONE', #219, 2.528999999999994586 ) ;
#165 = PERSON_AND_ORGANIZATION_ROLE ( 'classification_officer' ) ;
#166 = AXIS2_PLACEMENT_3D ( 'NONE', #203, #227, #58 ) ;
#167 = CC_DESIGN_DATE_AND_TIME_ASSIGNMENT ( #96, #220, ( #32 ) ) ;
#168 = ADVANCED_FACE ( 'NONE', ( #66, #37 ), #164, .T. ) ;
#169 = CARTESIAN_POINT ( 'NONE',  ( 4.565322579417426190E-14, -1.180958457674513630E-15, 13.07560355150028997 ) ) ;
#170 = VERTEX_POINT ( 'NONE', #158 ) ;
#171 = DIRECTION ( 'NONE',  ( -3.491481338843133355E-15, 9.031770143711729009E-17, -1.000000000000000000 ) ) ;
#172 = FACE_OUTER_BOUND ( 'NONE', #16, .T. ) ;
#173 = CC_DESIGN_PERSON_AND_ORGANIZATION_ASSIGNMENT ( #118, #179, ( #122 ) ) ;
#174 = CALENDAR_DATE ( 2021, 26, 11 ) ;
#175 = ORGANIZATION ( 'UNSPECIFIED', 'UNSPECIFIED', '' ) ;
#176 = LOCAL_TIME ( 11, 3, 31.00000000000000000, #178 ) ;
#177 = CARTESIAN_POINT ( 'NONE',  ( 6.842277657836020854E-46, 2.298059892324148201, 0.0000000000000000000 ) ) ;
#178 = COORDINATED_UNIVERSAL_TIME_OFFSET ( 1, 0, .AHEAD. ) ;
#179 = PERSON_AND_ORGANIZATION_ROLE ( 'design_supplier' ) ;
#180 = AXIS2_PLACEMENT_3D ( 'NONE', #235, #21, #78 ) ;
#181 = DIRECTION ( 'NONE',  ( -1.760900451636622739E-30, 1.000000000000000000, -5.043419341946358028E-16 ) ) ;
#182 = CALENDAR_DATE ( 2021, 26, 11 ) ;
#183 = SHAPE_DEFINITION_REPRESENTATION ( #218, #224 ) ;
#184 = AXIS2_PLACEMENT_3D ( 'NONE', #90, #46, #204 ) ;
#185 = MANIFOLD_SOLID_BREP ( 'Corps-Déplacer/Copier1[1]', #67 ) ;
#186 = DIRECTION ( 'NONE',  ( 0.0000000000000000000, 1.000000000000000000, 0.0000000000000000000 ) ) ;
#187 = DIRECTION ( 'NONE',  ( 3.491481338843133355E-15, 5.043419341946358028E-16, 1.000000000000000000 ) ) ;
#188 = CIRCLE ( 'NONE', #209, 1.999999999999995337 ) ;
#189 = FACE_OUTER_BOUND ( 'NONE', #52, .T. ) ;
#190 = APPLICATION_PROTOCOL_DEFINITION ( 'international standard', 'config_control_design', 1994, #43 ) ;
#191 = CC_DESIGN_PERSON_AND_ORGANIZATION_ASSIGNMENT ( #81, #63, ( #134 ) ) ;
#192 = LOCAL_TIME ( 11, 3, 31.00000000000000000, #149 ) ;
#193 =( GEOMETRIC_REPRESENTATION_CONTEXT ( 3 ) GLOBAL_UNCERTAINTY_ASSIGNED_CONTEXT ( ( #125 ) ) GLOBAL_UNIT_ASSIGNED_CONTEXT ( ( #3, #28, #115 ) ) REPRESENTATION_CONTEXT ( 'NONE', 'WORKASPACE' ) );
#194 = VERTEX_POINT ( 'NONE', #94 ) ;
#195 = CC_DESIGN_PERSON_AND_ORGANIZATION_ASSIGNMENT ( #86, #165, ( #32 ) ) ;
#196 = APPROVAL_ROLE ( '' ) ;
#197 = CC_DESIGN_APPROVAL ( #156, ( #122 ) ) ;
#198 = PRODUCT_RELATED_PRODUCT_CATEGORY ( 'detail', '', ( #129 ) ) ;
#199 = PLANE ( 'NONE',  #166 ) ;
#200 = CIRCLE ( 'NONE', #27, 2.528999999999991921 ) ;
#201 = PERSON_AND_ORGANIZATION_ROLE ( 'design_owner' ) ;
#202 = ADVANCED_FACE ( 'NONE', ( #34 ), #241, .T. ) ;
#203 = CARTESIAN_POINT ( 'NONE',  ( 2.793185071074506684E-13, -7.225416114969383207E-15, 80.00000000000000000 ) ) ;
#204 = DIRECTION ( 'NONE',  ( -1.760900451636622388E-30, 1.000000000000000000, -5.043419341946358028E-16 ) ) ;
#205 = DIRECTION ( 'NONE',  ( -3.491481338843133355E-15, 9.031770143711729009E-17, -1.000000000000000000 ) ) ;
#206 = ORIENTED_EDGE ( 'NONE', *, *, #1, .F. ) ;
#207 = DIRECTION ( 'NONE',  ( -3.491481338843133355E-15, 9.031770143711729009E-17, -1.000000000000000000 ) ) ;
#208 = APPROVAL ( #217, 'UNSPECIFIED' ) ;
#209 = AXIS2_PLACEMENT_3D ( 'NONE', #153, #207, #68 ) ;
#210 = CARTESIAN_POINT ( 'NONE',  ( 4.565322579417426190E-14, 2.528999999999998138, 13.07560355150028997 ) ) ;
#211 = DIRECTION ( 'NONE',  ( -1.751537711384201801E-30, 1.000000000000000000, -5.144494294118649608E-16 ) ) ;
#212 = CARTESIAN_POINT ( 'NONE',  ( 4.565322579417426821E-14, 6.594575185925905807E-15, 13.07560355150029174 ) ) ;
#213 = DATE_AND_TIME ( #230, #192 ) ;
#214 = CIRCLE ( 'NONE', #184, 2.298059892324148201 ) ;
#215 = ADVANCED_FACE ( 'NONE', ( #145 ), #162, .T. ) ;
#216 = FACE_OUTER_BOUND ( 'NONE', #237, .T. ) ;
#217 = APPROVAL_STATUS ( 'not_yet_approved' ) ;
#218 = PRODUCT_DEFINITION_SHAPE ( 'NONE', 'NONE',  #134 ) ;
#219 = AXIS2_PLACEMENT_3D ( 'NONE', #76, #117, #181 ) ;
#220 = DATE_TIME_ROLE ( 'classification_date' ) ;
#221 = EDGE_CURVE ( 'NONE', #231, #231, #59, .T. ) ;
#222 = ORIENTED_EDGE ( 'NONE', *, *, #8, .T. ) ;
#223 = CARTESIAN_POINT ( 'NONE',  ( -2.023327351140800488E-30, 2.298059892324148201, -5.795039854949386505E-16 ) ) ;
#224 = ADVANCED_BREP_SHAPE_REPRESENTATION ( '321409', ( #185, #106, #226 ), #193 ) ;
#225 = ADVANCED_FACE ( 'NONE', ( #110 ), #126, .T. ) ;
#226 = AXIS2_PLACEMENT_3D ( 'NONE', #65, #92, #133 ) ;
#227 = DIRECTION ( 'NONE',  ( 3.491481338843133355E-15, -9.031770143711729009E-17, 1.000000000000000000 ) ) ;
#228 = FACE_BOUND ( 'NONE', #144, .T. ) ;
#229 = AXIS2_PLACEMENT_3D ( 'NONE', #26, #171, #135 ) ;
#230 = CALENDAR_DATE ( 2021, 26, 11 ) ;
#231 = VERTEX_POINT ( 'NONE', #210 ) ;
#232 = CIRCLE ( 'NONE', #238, 2.528999999999997694 ) ;
#233 = PERSON_AND_ORGANIZATION ( #23, #175 ) ;
#234 = DIRECTION ( 'NONE',  ( 0.0000000000000000000, 1.000000000000000000, 0.0000000000000000000 ) ) ;
#235 = CARTESIAN_POINT ( 'NONE',  ( 2.779219145719134403E-13, -7.189289034394536528E-15, 79.60000000000000853 ) ) ;
#236 = EDGE_LOOP ( 'NONE', ( #120 ) ) ;
#237 = EDGE_LOOP ( 'NONE', ( #222 ) ) ;
#238 = AXIS2_PLACEMENT_3D ( 'NONE', #30, #83, #211 ) ;
#239 = CARTESIAN_POINT ( 'NONE',  ( 4.565322579417426190E-14, -1.180958457674513630E-15, 13.07560355150028997 ) ) ;
#240 = CC_DESIGN_PERSON_AND_ORGANIZATION_ASSIGNMENT ( #79, #25, ( #122 ) ) ;
#241 = PLANE ( 'NONE',  #102 ) ;
#242 = ORIENTED_EDGE ( 'NONE', *, *, #88, .F. ) ;
#243 = DATE_AND_TIME ( #11, #176 ) ;
ENDSEC;
END-ISO-10303-21;
