ISO-10303-21;
HEADER;
FILE_DESCRIPTION (( 'STEP AP203' ),
    '1' );
FILE_NAME ('321408.step',
    '2021-11-26T10:03:31',
    ( '' ),
    ( '' ),
    'SwSTEP 2.0',
    'SolidWorks 2019',
    '' );
FILE_SCHEMA (( 'CONFIG_CONTROL_DESIGN' ));
ENDSEC;

DATA;
#1 = LOCAL_TIME ( 11, 3, 31.00000000000000000, #179 ) ;
#2 = PRODUCT_DEFINITION_SHAPE ( 'NONE', 'NONE',  #184 ) ;
#3 = DATE_AND_TIME ( #45, #177 ) ;
#4 = CARTESIAN_POINT ( 'NONE',  ( 4.568346290953704325E-14, 6.592454035448458874E-15, 13.08426380553813750 ) ) ;
#5 = AXIS2_PLACEMENT_3D ( 'NONE', #4, #196, #30 ) ;
#6 = EDGE_LOOP ( 'NONE', ( #205 ) ) ;
#7 = CARTESIAN_POINT ( 'NONE',  ( 4.568346290953703694E-14, 2.523999999999998245, 13.08426380553813573 ) ) ;
#8 = EDGE_LOOP ( 'NONE', ( #186 ) ) ;
#9 = ADVANCED_FACE ( 'NONE', ( #158 ), #67, .T. ) ;
#10 = DIRECTION ( 'NONE',  ( 1.759168921082658383E-30, -1.000000000000000000, 5.038460041334607723E-16 ) ) ;
#11 = DIRECTION ( 'NONE',  ( -3.491481338843133355E-15, -5.038460041334607723E-16, -1.000000000000000000 ) ) ;
#12 = FACE_OUTER_BOUND ( 'NONE', #96, .T. ) ;
#13 = CALENDAR_DATE ( 2021, 26, 11 ) ;
#14 = CARTESIAN_POINT ( 'NONE',  ( 0.0000000000000000000, 0.0000000000000000000, 0.0000000000000000000 ) ) ;
#15 = CARTESIAN_POINT ( 'NONE',  ( 0.0000000000000000000, 2.293059892324149196, 0.0000000000000000000 ) ) ;
#16 = AXIS2_PLACEMENT_3D ( 'NONE', #157, #28, #178 ) ;
#17 = APPROVAL_ROLE ( '' ) ;
#18 = CYLINDRICAL_SURFACE ( 'NONE', #81, 2.523999999999995580 ) ;
#19 = ADVANCED_FACE ( 'NONE', ( #167 ), #124, .T. ) ;
#20 = CIRCLE ( 'NONE', #136, 2.523999999999998689 ) ;
#21 = PRODUCT ( '321408', '321408', '', ( #40 ) ) ;
#22 = VERTEX_POINT ( 'NONE', #85 ) ;
#23 = SECURITY_CLASSIFICATION_LEVEL ( 'unclassified' ) ;
#24 = ADVANCED_FACE ( 'NONE', ( #103 ), #239, .T. ) ;
#25 = APPROVAL ( #119, 'UNSPECIFIED' ) ;
#26 = CARTESIAN_POINT ( 'NONE',  ( 4.568346290953703694E-14, 6.592454035448458085E-15, 13.08426380553813573 ) ) ;
#27 = PERSON_AND_ORGANIZATION ( #206, #44 ) ;
#28 = DIRECTION ( 'NONE',  ( -3.491481338843133355E-15, 9.031770143711729009E-17, -1.000000000000000000 ) ) ;
#29 = ADVANCED_FACE ( 'NONE', ( #241, #73 ), #142, .T. ) ;
#30 = DIRECTION ( 'NONE',  ( -2.441749533296027772E-30, 1.000000000000000000, -6.872913930177545743E-16 ) ) ;
#31 = PERSON_AND_ORGANIZATION_ROLE ( 'design_owner' ) ;
#32 = ORIENTED_EDGE ( 'NONE', *, *, #95, .T. ) ;
#33 = DIRECTION ( 'NONE',  ( -1.759168921082658383E-30, 1.000000000000000000, -5.038460041334606737E-16 ) ) ;
#34 = DIRECTION ( 'NONE',  ( 3.491481338843133355E-15, -9.031770143711729009E-17, 1.000000000000000000 ) ) ;
#35 = CARTESIAN_POINT ( 'NONE',  ( -2.016939848378895388E-30, 2.293059892324149196, -5.776745319931132343E-16 ) ) ;
#36 = COORDINATED_UNIVERSAL_TIME_OFFSET ( 1, 0, .AHEAD. ) ;
#37 = DIRECTION ( 'NONE',  ( -3.153425691349006731E-31, -1.000000000000000000, -9.031770143711729009E-17 ) ) ;
#38 = PERSON_AND_ORGANIZATION ( #206, #44 ) ;
#39 = CARTESIAN_POINT ( 'NONE',  ( 4.033879696757790777E-30, 5.821180092687942244E-31, 1.155349063986226469E-15 ) ) ;
#40 = MECHANICAL_CONTEXT ( 'NONE', #55, 'mechanical' ) ;
#41 = CIRCLE ( 'NONE', #62, 2.293059892324149196 ) ;
#42 = CYLINDRICAL_SURFACE ( 'NONE', #59, 1.999999999999993561 ) ;
#43 = AXIS2_PLACEMENT_3D ( 'NONE', #132, #49, #102 ) ;
#44 = ORGANIZATION ( 'UNSPECIFIED', 'UNSPECIFIED', '' ) ;
#45 = CALENDAR_DATE ( 2021, 26, 11 ) ;
#46 = EDGE_LOOP ( 'NONE', ( #60 ) ) ;
#47 = CARTESIAN_POINT ( 'NONE',  ( 1.396592535537257484E-15, 2.015384016533849203E-16, 0.4000000000000011879 ) ) ;
#48 = CARTESIAN_POINT ( 'NONE',  ( 4.568346290953703694E-14, 2.523999999999998245, 13.08426380553813573 ) ) ;
#49 = DIRECTION ( 'NONE',  ( -3.491481338843133355E-15, 9.031770143711729009E-17, -1.000000000000000000 ) ) ;
#50 = DATE_AND_TIME ( #218, #117 ) ;
#51 = SHAPE_DEFINITION_REPRESENTATION ( #2, #166 ) ;
#52 = PERSON_AND_ORGANIZATION ( #206, #44 ) ;
#53 = CIRCLE ( 'NONE', #182, 1.599999999999994982 ) ;
#54 = APPLICATION_PROTOCOL_DEFINITION ( 'international standard', 'config_control_design', 1994, #55 ) ;
#55 = APPLICATION_CONTEXT ( 'configuration controlled 3d designs of mechanical parts and assemblies' ) ;
#56 = PERSON_AND_ORGANIZATION_ROLE ( 'design_supplier' ) ;
#57 = DIRECTION ( 'NONE',  ( -3.491481338843133355E-15, -5.038460041334607723E-16, -1.000000000000000000 ) ) ;
#58 = EDGE_LOOP ( 'NONE', ( #216 ) ) ;
#59 = AXIS2_PLACEMENT_3D ( 'NONE', #113, #128, #79 ) ;
#60 = ORIENTED_EDGE ( 'NONE', *, *, #164, .F. ) ;
#61 = AXIS2_PLACEMENT_3D ( 'NONE', #70, #120, #118 ) ;
#62 = AXIS2_PLACEMENT_3D ( 'NONE', #39, #127, #149 ) ;
#63 = ADVANCED_FACE ( 'NONE', ( #152, #111 ), #42, .T. ) ;
#64 = CARTESIAN_POINT ( 'NONE',  ( 4.885231259955590439E-14, 1.999999999999990452, 13.99185842870425134 ) ) ;
#65 = ORIENTED_EDGE ( 'NONE', *, *, #234, .F. ) ;
#66 = FACE_OUTER_BOUND ( 'NONE', #204, .T. ) ;
#67 = PLANE ( 'NONE',  #213 ) ;
#68 = CLOSED_SHELL ( 'NONE', ( #209, #223, #169, #24 ) ) ;
#69 = CC_DESIGN_PERSON_AND_ORGANIZATION_ASSIGNMENT ( #82, #150, ( #214 ) ) ;
#70 = CARTESIAN_POINT ( 'NONE',  ( 4.033879696757790777E-30, 5.821180092687942244E-31, 1.155349063986226469E-15 ) ) ;
#71 = DATE_TIME_ROLE ( 'creation_date' ) ;
#72 = APPROVAL_DATE_TIME ( #50, #91 ) ;
#73 = FACE_OUTER_BOUND ( 'NONE', #8, .T. ) ;
#74 = FACE_OUTER_BOUND ( 'NONE', #6, .T. ) ;
#75 = DATE_AND_TIME ( #198, #224 ) ;
#76 = CARTESIAN_POINT ( 'NONE',  ( 2.779219145719134403E-13, -7.189289034394536528E-15, 79.60000000000000853 ) ) ;
#77 = CIRCLE ( 'NONE', #5, 2.523999999999992028 ) ;
#78 = DIRECTION ( 'NONE',  ( -3.491481338843133355E-15, 9.031770143711729009E-17, -1.000000000000000000 ) ) ;
#79 = DIRECTION ( 'NONE',  ( 3.153425691349006731E-31, 1.000000000000000000, 9.031770143711729009E-17 ) ) ;
#80 = CONICAL_SURFACE ( 'NONE', #107, 2.523999999999999577, 0.5235987755982933756 ) ;
#81 = AXIS2_PLACEMENT_3D ( 'NONE', #165, #57, #33 ) ;
#82 = PERSON_AND_ORGANIZATION ( #206, #44 ) ;
#83 = EDGE_LOOP ( 'NONE', ( #226 ) ) ;
#84 = EDGE_CURVE ( 'NONE', #22, #22, #230, .T. ) ;
#85 = CARTESIAN_POINT ( 'NONE',  ( 2.779219145719134403E-13, 1.999999999999988010, 79.60000000000000853 ) ) ;
#86 = APPROVAL_PERSON_ORGANIZATION ( #27, #25, #17 ) ;
#87 = CARTESIAN_POINT ( 'NONE',  ( 2.779219145719134403E-13, -7.189289034394536528E-15, 79.60000000000000853 ) ) ;
#88 = AXIS2_PLACEMENT_3D ( 'NONE', #35, #181, #222 ) ;
#89 =( NAMED_UNIT ( * ) SI_UNIT ( $, .STERADIAN. ) SOLID_ANGLE_UNIT ( ) );
#90 = EDGE_LOOP ( 'NONE', ( #188 ) ) ;
#91 = APPROVAL ( #110, 'UNSPECIFIED' ) ;
#92 = APPROVAL_DATE_TIME ( #105, #25 ) ;
#93 = APPROVAL ( #143, 'UNSPECIFIED' ) ;
#94 = COORDINATED_UNIVERSAL_TIME_OFFSET ( 1, 0, .AHEAD. ) ;
#95 = EDGE_CURVE ( 'NONE', #231, #231, #146, .T. ) ;
#96 = EDGE_LOOP ( 'NONE', ( #141 ) ) ;
#97 = DIRECTION ( 'NONE',  ( 0.0000000000000000000, 1.000000000000000000, 0.0000000000000000000 ) ) ;
#98 = CC_DESIGN_APPROVAL ( #93, ( #187 ) ) ;
#99 = FACE_OUTER_BOUND ( 'NONE', #133, .T. ) ;
#100 = DIRECTION ( 'NONE',  ( 3.491481338843133355E-15, 5.038460041334607723E-16, 1.000000000000000000 ) ) ;
#101 = VERTEX_POINT ( 'NONE', #156 ) ;
#102 = DIRECTION ( 'NONE',  ( 0.0000000000000000000, 1.000000000000000000, 0.0000000000000000000 ) ) ;
#103 = FACE_OUTER_BOUND ( 'NONE', #83, .T. ) ;
#104 = CC_DESIGN_DATE_AND_TIME_ASSIGNMENT ( #197, #71, ( #184 ) ) ;
#105 = DATE_AND_TIME ( #217, #238 ) ;
#106 = DIRECTION ( 'NONE',  ( 1.000000000000000000, 0.0000000000000000000, 0.0000000000000000000 ) ) ;
#107 = AXIS2_PLACEMENT_3D ( 'NONE', #134, #210, #189 ) ;
#108 = DIRECTION ( 'NONE',  ( 0.0000000000000000000, 0.0000000000000000000, 1.000000000000000000 ) ) ;
#109 = APPLICATION_CONTEXT ( 'configuration controlled 3d designs of mechanical parts and assemblies' ) ;
#110 = APPROVAL_STATUS ( 'not_yet_approved' ) ;
#111 = FACE_OUTER_BOUND ( 'NONE', #58, .T. ) ;
#112 = EDGE_LOOP ( 'NONE', ( #227 ) ) ;
#113 = CARTESIAN_POINT ( 'NONE',  ( 0.0000000000000000000, 0.0000000000000000000, 0.0000000000000000000 ) ) ;
#114 = DIRECTION ( 'NONE',  ( -3.491481338843133355E-15, 9.031770143711729009E-17, -1.000000000000000000 ) ) ;
#115 = AXIS2_PLACEMENT_3D ( 'NONE', #163, #34, #37 ) ;
#116 = VERTEX_POINT ( 'NONE', #195 ) ;
#117 = LOCAL_TIME ( 11, 3, 31.00000000000000000, #94 ) ;
#118 = DIRECTION ( 'NONE',  ( 1.759168921082658733E-30, -1.000000000000000000, 5.038460041334607723E-16 ) ) ;
#119 = APPROVAL_STATUS ( 'not_yet_approved' ) ;
#120 = DIRECTION ( 'NONE',  ( 3.491481338843133355E-15, 5.038460041334607723E-16, 1.000000000000000000 ) ) ;
#121 = PERSON_AND_ORGANIZATION_ROLE ( 'creator' ) ;
#122 = EDGE_CURVE ( 'NONE', #131, #131, #243, .T. ) ;
#123 = CC_DESIGN_APPROVAL ( #25, ( #214 ) ) ;
#124 = PLANE ( 'NONE',  #115 ) ;
#125 = VERTEX_POINT ( 'NONE', #15 ) ;
#126 = APPROVAL_ROLE ( '' ) ;
#127 = DIRECTION ( 'NONE',  ( -3.491481338843133355E-15, -5.038460041334607723E-16, -1.000000000000000000 ) ) ;
#128 = DIRECTION ( 'NONE',  ( -3.491481338843133355E-15, 9.031770143711729009E-17, -1.000000000000000000 ) ) ;
#129 = UNCERTAINTY_MEASURE_WITH_UNIT (LENGTH_MEASURE( 1.000000000000000082E-05 ), #176, 'distance_accuracy_value', 'NONE');
#130 = DIRECTION ( 'NONE',  ( 0.0000000000000000000, 1.000000000000000000, 0.0000000000000000000 ) ) ;
#131 = VERTEX_POINT ( 'NONE', #7 ) ;
#132 = CARTESIAN_POINT ( 'NONE',  ( 4.885231259955590439E-14, -1.263712492114123682E-15, 13.99185842870425134 ) ) ;
#133 = EDGE_LOOP ( 'NONE', ( #211 ) ) ;
#134 = CARTESIAN_POINT ( 'NONE',  ( 4.568346290953703694E-14, -1.181740631913073321E-15, 13.08426380553813573 ) ) ;
#135 = CC_DESIGN_DATE_AND_TIME_ASSIGNMENT ( #75, #147, ( #214 ) ) ;
#136 = AXIS2_PLACEMENT_3D ( 'NONE', #47, #11, #173 ) ;
#137 = APPROVAL_PERSON_ORGANIZATION ( #52, #93, #126 ) ;
#138 = CARTESIAN_POINT ( 'NONE',  ( 2.793185071074506684E-13, -7.225416114969383207E-15, 80.00000000000000000 ) ) ;
#139 = EDGE_LOOP ( 'NONE', ( #174 ) ) ;
#140 = PERSON_AND_ORGANIZATION ( #206, #44 ) ;
#141 = ORIENTED_EDGE ( 'NONE', *, *, #171, .F. ) ;
#142 = CONICAL_SURFACE ( 'NONE', #225, 1.999999999999995337, 0.7853981633974516097 ) ;
#143 = APPROVAL_STATUS ( 'not_yet_approved' ) ;
#144 = DIRECTION ( 'NONE',  ( 3.153425691349006731E-31, 1.000000000000000000, 9.031770143711729009E-17 ) ) ;
#145 = DIRECTION ( 'NONE',  ( -3.491481338843133355E-15, 9.031770143711729009E-17, -1.000000000000000000 ) ) ;
#146 = CIRCLE ( 'NONE', #43, 1.999999999999991784 ) ;
#147 = DATE_TIME_ROLE ( 'classification_date' ) ;
#148 = AXIS2_PLACEMENT_3D ( 'NONE', #14, #108, #106 ) ;
#149 = DIRECTION ( 'NONE',  ( -1.759168921082658733E-30, 1.000000000000000000, -5.038460041334607723E-16 ) ) ;
#150 = PERSON_AND_ORGANIZATION_ROLE ( 'classification_officer' ) ;
#151 = PERSON_AND_ORGANIZATION ( #206, #44 ) ;
#152 = FACE_OUTER_BOUND ( 'NONE', #139, .T. ) ;
#153 = ADVANCED_FACE ( 'NONE', ( #191, #66 ), #80, .T. ) ;
#154 = AXIS2_PLACEMENT_3D ( 'NONE', #26, #100, #10 ) ;
#155 = APPROVAL_PERSON_ORGANIZATION ( #220, #91, #237 ) ;
#156 = CARTESIAN_POINT ( 'NONE',  ( 1.396592535537253145E-15, 2.523999999999998689, 0.3999999999999999667 ) ) ;
#157 = CARTESIAN_POINT ( 'NONE',  ( 4.568346290953703694E-14, -1.181740631913073321E-15, 13.08426380553813573 ) ) ;
#158 = FACE_OUTER_BOUND ( 'NONE', #90, .T. ) ;
#159 = DIRECTION ( 'NONE',  ( -3.491481338843133355E-15, 9.031770143711729009E-17, -1.000000000000000000 ) ) ;
#160 = CC_DESIGN_APPROVAL ( #91, ( #184 ) ) ;
#161 = PERSON_AND_ORGANIZATION ( #206, #44 ) ;
#162 = CARTESIAN_POINT ( 'NONE',  ( 4.568346290953703694E-14, 2.523999999999998245, 13.08426380553813573 ) ) ;
#163 = CARTESIAN_POINT ( 'NONE',  ( 2.793185071074506684E-13, -7.225416114969383207E-15, 80.00000000000000000 ) ) ;
#164 = EDGE_CURVE ( 'NONE', #101, #101, #20, .T. ) ;
#165 = CARTESIAN_POINT ( 'NONE',  ( 0.0000000000000000000, 0.0000000000000000000, 0.0000000000000000000 ) ) ;
#166 = ADVANCED_BREP_SHAPE_REPRESENTATION ( '321408', ( #190, #193, #148 ), #207 ) ;
#167 = FACE_OUTER_BOUND ( 'NONE', #185, .T. ) ;
#168 = CONICAL_SURFACE ( 'NONE', #61, 2.293059892324149196, 0.5235987755982978165 ) ;
#169 = ADVANCED_FACE ( 'NONE', ( #99, #232 ), #168, .T. ) ;
#170 = CLOSED_SHELL ( 'NONE', ( #19, #29, #63, #153, #9 ) ) ;
#171 = EDGE_CURVE ( 'NONE', #212, #212, #77, .T. ) ;
#172 = EDGE_LOOP ( 'NONE', ( #65 ) ) ;
#173 = DIRECTION ( 'NONE',  ( -1.755007477056515450E-30, 1.000000000000000000, -4.939906887315098307E-16 ) ) ;
#174 = ORIENTED_EDGE ( 'NONE', *, *, #84, .T. ) ;
#175 = CC_DESIGN_SECURITY_CLASSIFICATION ( #214, ( #187 ) ) ;
#176 =( LENGTH_UNIT ( ) NAMED_UNIT ( * ) SI_UNIT ( .MILLI., .METRE. ) );
#177 = LOCAL_TIME ( 11, 3, 31.00000000000000000, #208 ) ;
#178 = DIRECTION ( 'NONE',  ( 0.0000000000000000000, 1.000000000000000000, 0.0000000000000000000 ) ) ;
#179 = COORDINATED_UNIVERSAL_TIME_OFFSET ( 1, 0, .AHEAD. ) ;
#180 =( NAMED_UNIT ( * ) PLANE_ANGLE_UNIT ( ) SI_UNIT ( $, .RADIAN. ) );
#181 = DIRECTION ( 'NONE',  ( -3.491481338843133355E-15, -5.038460041334607723E-16, -1.000000000000000000 ) ) ;
#182 = AXIS2_PLACEMENT_3D ( 'NONE', #138, #159, #233 ) ;
#183 = DESIGN_CONTEXT ( 'detailed design', #109, 'design' ) ;
#184 = PRODUCT_DEFINITION ( 'UNKNOWN', '', #187, #183 ) ;
#185 = EDGE_LOOP ( 'NONE', ( #200 ) ) ;
#186 = ORIENTED_EDGE ( 'NONE', *, *, #84, .F. ) ;
#187 = PRODUCT_DEFINITION_FORMATION_WITH_SPECIFIED_SOURCE ( 'ANY', '', #21, .NOT_KNOWN. ) ;
#188 = ORIENTED_EDGE ( 'NONE', *, *, #122, .T. ) ;
#189 = DIRECTION ( 'NONE',  ( 0.0000000000000000000, 1.000000000000000000, 0.0000000000000000000 ) ) ;
#190 = MANIFOLD_SOLID_BREP ( 'Corps-Déplacer/Copier1[1]', #170 ) ;
#191 = FACE_BOUND ( 'NONE', #235, .T. ) ;
#192 = PLANE ( 'NONE',  #154 ) ;
#193 = MANIFOLD_SOLID_BREP ( 'Corps-Déplacer/Copier1[2]', #68 ) ;
#194 = CC_DESIGN_PERSON_AND_ORGANIZATION_ASSIGNMENT ( #140, #121, ( #184 ) ) ;
#195 = CARTESIAN_POINT ( 'NONE',  ( 2.793185071074506684E-13, 1.599999999999987876, 80.00000000000000000 ) ) ;
#196 = DIRECTION ( 'NONE',  ( -3.491481338843133355E-15, -5.038460041334607723E-16, -1.000000000000000000 ) ) ;
#197 = DATE_AND_TIME ( #13, #1 ) ;
#198 = CALENDAR_DATE ( 2021, 26, 11 ) ;
#199 = AXIS2_PLACEMENT_3D ( 'NONE', #87, #114, #130 ) ;
#200 = ORIENTED_EDGE ( 'NONE', *, *, #215, .F. ) ;
#201 = FACE_OUTER_BOUND ( 'NONE', #46, .T. ) ;
#202 = CC_DESIGN_PERSON_AND_ORGANIZATION_ASSIGNMENT ( #151, #56, ( #187 ) ) ;
#203 = ORIENTED_EDGE ( 'NONE', *, *, #122, .F. ) ;
#204 = EDGE_LOOP ( 'NONE', ( #203 ) ) ;
#205 = ORIENTED_EDGE ( 'NONE', *, *, #171, .T. ) ;
#206 = PERSON ( 'UNSPECIFIED', 'UNSPECIFIED', 'UNSPECIFIED', ('UNSPECIFIED'), ('UNSPECIFIED'), ('UNSPECIFIED') ) ;
#207 =( GEOMETRIC_REPRESENTATION_CONTEXT ( 3 ) GLOBAL_UNCERTAINTY_ASSIGNED_CONTEXT ( ( #129 ) ) GLOBAL_UNIT_ASSIGNED_CONTEXT ( ( #176, #180, #89 ) ) REPRESENTATION_CONTEXT ( 'NONE', 'WORKASPACE' ) );
#208 = COORDINATED_UNIVERSAL_TIME_OFFSET ( 1, 0, .AHEAD. ) ;
#209 = ADVANCED_FACE ( 'NONE', ( #12 ), #192, .T. ) ;
#210 = DIRECTION ( 'NONE',  ( -3.491481338843133355E-15, 9.031770143711729009E-17, -1.000000000000000000 ) ) ;
#211 = ORIENTED_EDGE ( 'NONE', *, *, #164, .T. ) ;
#212 = VERTEX_POINT ( 'NONE', #48 ) ;
#213 = AXIS2_PLACEMENT_3D ( 'NONE', #162, #78, #144 ) ;
#214 = SECURITY_CLASSIFICATION ( '', '', #23 ) ;
#215 = EDGE_CURVE ( 'NONE', #116, #116, #53, .T. ) ;
#216 = ORIENTED_EDGE ( 'NONE', *, *, #95, .F. ) ;
#217 = CALENDAR_DATE ( 2021, 26, 11 ) ;
#218 = CALENDAR_DATE ( 2021, 26, 11 ) ;
#219 = CC_DESIGN_PERSON_AND_ORGANIZATION_ASSIGNMENT ( #38, #242, ( #187 ) ) ;
#220 = PERSON_AND_ORGANIZATION ( #206, #44 ) ;
#221 = APPLICATION_PROTOCOL_DEFINITION ( 'international standard', 'config_control_design', 1994, #109 ) ;
#222 = DIRECTION ( 'NONE',  ( -1.759168921082658383E-30, 1.000000000000000000, -5.038460041334607723E-16 ) ) ;
#223 = ADVANCED_FACE ( 'NONE', ( #74, #201 ), #18, .T. ) ;
#224 = LOCAL_TIME ( 11, 3, 31.00000000000000000, #228 ) ;
#225 = AXIS2_PLACEMENT_3D ( 'NONE', #76, #145, #97 ) ;
#226 = ORIENTED_EDGE ( 'NONE', *, *, #234, .T. ) ;
#227 = ORIENTED_EDGE ( 'NONE', *, *, #215, .T. ) ;
#228 = COORDINATED_UNIVERSAL_TIME_OFFSET ( 1, 0, .AHEAD. ) ;
#229 = PRODUCT_RELATED_PRODUCT_CATEGORY ( 'detail', '', ( #21 ) ) ;
#230 = CIRCLE ( 'NONE', #199, 1.999999999999995337 ) ;
#231 = VERTEX_POINT ( 'NONE', #64 ) ;
#232 = FACE_BOUND ( 'NONE', #172, .T. ) ;
#233 = DIRECTION ( 'NONE',  ( 0.0000000000000000000, 1.000000000000000000, 0.0000000000000000000 ) ) ;
#234 = EDGE_CURVE ( 'NONE', #125, #125, #41, .T. ) ;
#235 = EDGE_LOOP ( 'NONE', ( #32 ) ) ;
#236 = APPROVAL_DATE_TIME ( #3, #93 ) ;
#237 = APPROVAL_ROLE ( '' ) ;
#238 = LOCAL_TIME ( 11, 3, 31.00000000000000000, #36 ) ;
#239 = PLANE ( 'NONE',  #88 ) ;
#240 = CC_DESIGN_PERSON_AND_ORGANIZATION_ASSIGNMENT ( #161, #31, ( #21 ) ) ;
#241 = FACE_BOUND ( 'NONE', #112, .T. ) ;
#242 = PERSON_AND_ORGANIZATION_ROLE ( 'creator' ) ;
#243 = CIRCLE ( 'NONE', #16, 2.523999999999999577 ) ;
ENDSEC;
END-ISO-10303-21;
