ISO-10303-21;
HEADER;
FILE_DESCRIPTION (( 'STEP AP203' ),
    '1' );
FILE_NAME ('321407.step',
    '2021-11-26T10:03:30',
    ( '' ),
    ( '' ),
    'SwSTEP 2.0',
    'SolidWorks 2019',
    '' );
FILE_SCHEMA (( 'CONFIG_CONTROL_DESIGN' ));
ENDSEC;

DATA;
#1 = CC_DESIGN_DATE_AND_TIME_ASSIGNMENT ( #65, #115, ( #106 ) ) ;
#2 = ORGANIZATION ( 'UNSPECIFIED', 'UNSPECIFIED', '' ) ;
#3 = APPLICATION_CONTEXT ( 'configuration controlled 3d designs of mechanical parts and assemblies' ) ;
#4 = CARTESIAN_POINT ( 'NONE',  ( 2.779219145719134403E-13, 1.999999999999988010, 79.60000000000000853 ) ) ;
#5 = FACE_OUTER_BOUND ( 'NONE', #196, .T. ) ;
#6 = LOCAL_TIME ( 11, 3, 30.00000000000000000, #98 ) ;
#7 = CARTESIAN_POINT ( 'NONE',  ( 4.021127247628416194E-30, 5.797073332559807565E-31, 1.151696617390707637E-15 ) ) ;
#8 = EDGE_LOOP ( 'NONE', ( #160 ) ) ;
#9 = ADVANCED_FACE ( 'NONE', ( #52, #56 ), #203, .T. ) ;
#10 = ORIENTED_EDGE ( 'NONE', *, *, #170, .T. ) ;
#11 = ORIENTED_EDGE ( 'NONE', *, *, #236, .F. ) ;
#12 = CARTESIAN_POINT ( 'NONE',  ( -6.842277657836020854E-46, 2.288059892324147970, 0.0000000000000000000 ) ) ;
#13 = ADVANCED_FACE ( 'NONE', ( #5 ), #36, .T. ) ;
#14 = CARTESIAN_POINT ( 'NONE',  ( 0.0000000000000000000, 0.0000000000000000000, 0.0000000000000000000 ) ) ;
#15 = DIRECTION ( 'NONE',  ( 3.153425691349006731E-31, 1.000000000000000000, 9.031770143711729009E-17 ) ) ;
#16 = DIRECTION ( 'NONE',  ( -1.757439681154441546E-30, 1.000000000000000000, -5.033507301335745150E-16 ) ) ;
#17 = PRODUCT_DEFINITION_FORMATION_WITH_SPECIFIED_SOURCE ( 'ANY', '', #136, .NOT_KNOWN. ) ;
#18 = CARTESIAN_POINT ( 'NONE',  ( 4.571370002489980567E-14, 6.590332884971011941E-15, 13.09292405957597616 ) ) ;
#19 = FACE_OUTER_BOUND ( 'NONE', #88, .T. ) ;
#20 = CARTESIAN_POINT ( 'NONE',  ( 2.793185071074506684E-13, 1.599999999999987876, 80.00000000000000000 ) ) ;
#21 = AXIS2_PLACEMENT_3D ( 'NONE', #60, #126, #184 ) ;
#22 = CC_DESIGN_PERSON_AND_ORGANIZATION_ASSIGNMENT ( #96, #42, ( #135 ) ) ;
#23 = DIRECTION ( 'NONE',  ( 3.153425691349006731E-31, 1.000000000000000000, 9.031770143711729009E-17 ) ) ;
#24 = APPROVAL_STATUS ( 'not_yet_approved' ) ;
#25 = CIRCLE ( 'NONE', #117, 2.288059892324147970 ) ;
#26 = DIRECTION ( 'NONE',  ( -3.491481338843133355E-15, -5.033507301335745150E-16, -1.000000000000000000 ) ) ;
#27 = APPLICATION_CONTEXT ( 'configuration controlled 3d designs of mechanical parts and assemblies' ) ;
#28 = LOCAL_TIME ( 11, 3, 30.00000000000000000, #116 ) ;
#29 = CIRCLE ( 'NONE', #186, 2.518999999999991690 ) ;
#30 = ORIENTED_EDGE ( 'NONE', *, *, #193, .T. ) ;
#31 = EDGE_LOOP ( 'NONE', ( #118 ) ) ;
#32 = DIRECTION ( 'NONE',  ( 0.0000000000000000000, 1.000000000000000000, 0.0000000000000000000 ) ) ;
#33 = FACE_OUTER_BOUND ( 'NONE', #177, .T. ) ;
#34 = CARTESIAN_POINT ( 'NONE',  ( 0.0000000000000000000, 0.0000000000000000000, 0.0000000000000000000 ) ) ;
#35 = APPROVAL_PERSON_ORGANIZATION ( #207, #202, #188 ) ;
#36 = PLANE ( 'NONE',  #238 ) ;
#37 = CARTESIAN_POINT ( 'NONE',  ( 4.885231259955590439E-14, 1.999999999999990452, 13.99185842870425134 ) ) ;
#38 = CARTESIAN_POINT ( 'NONE',  ( 4.021127247628416194E-30, 5.797073332559807565E-31, 1.151696617390707637E-15 ) ) ;
#39 = LOCAL_TIME ( 11, 3, 30.00000000000000000, #185 ) ;
#40 = CARTESIAN_POINT ( 'NONE',  ( 4.571370002489981199E-14, 2.518999999999998352, 13.09292405957597794 ) ) ;
#41 = DIRECTION ( 'NONE',  ( -3.491481338843133355E-15, 9.031770143711729009E-17, -1.000000000000000000 ) ) ;
#42 = PERSON_AND_ORGANIZATION_ROLE ( 'classification_officer' ) ;
#43 = CARTESIAN_POINT ( 'NONE',  ( 4.571370002489981199E-14, -1.182522806151632814E-15, 13.09292405957597794 ) ) ;
#44 = VERTEX_POINT ( 'NONE', #20 ) ;
#45 = DATE_AND_TIME ( #171, #39 ) ;
#46 = AXIS2_PLACEMENT_3D ( 'NONE', #173, #154, #128 ) ;
#47 = APPLICATION_PROTOCOL_DEFINITION ( 'international standard', 'config_control_design', 1994, #27 ) ;
#48 = EDGE_LOOP ( 'NONE', ( #231 ) ) ;
#49 = CONICAL_SURFACE ( 'NONE', #55, 2.288059892324147970, 0.5235987755982978165 ) ;
#50 = VERTEX_POINT ( 'NONE', #4 ) ;
#51 = CALENDAR_DATE ( 2021, 26, 11 ) ;
#52 = FACE_BOUND ( 'NONE', #140, .T. ) ;
#53 = ADVANCED_FACE ( 'NONE', ( #132 ), #205, .T. ) ;
#54 = FACE_OUTER_BOUND ( 'NONE', #143, .T. ) ;
#55 = AXIS2_PLACEMENT_3D ( 'NONE', #38, #58, #91 ) ;
#56 = FACE_OUTER_BOUND ( 'NONE', #48, .T. ) ;
#57 = DIRECTION ( 'NONE',  ( -2.446596197713050665E-30, 1.000000000000000000, -6.886556077716604582E-16 ) ) ;
#58 = DIRECTION ( 'NONE',  ( 3.491481338843133355E-15, 5.033507301335745150E-16, 1.000000000000000000 ) ) ;
#59 = VERTEX_POINT ( 'NONE', #12 ) ;
#60 = CARTESIAN_POINT ( 'NONE',  ( 2.793185071074506684E-13, -7.225416114969383207E-15, 80.00000000000000000 ) ) ;
#61 =( NAMED_UNIT ( * ) PLANE_ANGLE_UNIT ( ) SI_UNIT ( $, .RADIAN. ) );
#62 = ADVANCED_FACE ( 'NONE', ( #155, #87 ), #63, .T. ) ;
#63 = CONICAL_SURFACE ( 'NONE', #189, 2.518999999999999684, 0.5235987755982927094 ) ;
#64 = DIRECTION ( 'NONE',  ( 3.491481338843133355E-15, 5.033507301335745150E-16, 1.000000000000000000 ) ) ;
#65 = DATE_AND_TIME ( #226, #142 ) ;
#66 = AXIS2_PLACEMENT_3D ( 'NONE', #110, #80, #108 ) ;
#67 = PERSON_AND_ORGANIZATION_ROLE ( 'design_supplier' ) ;
#68 = MANIFOLD_SOLID_BREP ( 'Corps-Déplacer/Copier1[1]', #174 ) ;
#69 = DIRECTION ( 'NONE',  ( 0.0000000000000000000, 1.000000000000000000, 0.0000000000000000000 ) ) ;
#70 = APPROVAL ( #24, 'UNSPECIFIED' ) ;
#71 = APPROVAL_DATE_TIME ( #176, #70 ) ;
#72 = ORIENTED_EDGE ( 'NONE', *, *, #163, .T. ) ;
#73 = ORIENTED_EDGE ( 'NONE', *, *, #86, .T. ) ;
#74 = FACE_OUTER_BOUND ( 'NONE', #162, .T. ) ;
#75 = DIRECTION ( 'NONE',  ( -3.491481338843133355E-15, 9.031770143711729009E-17, -1.000000000000000000 ) ) ;
#76 = CIRCLE ( 'NONE', #158, 1.999999999999991784 ) ;
#77 = VERTEX_POINT ( 'NONE', #37 ) ;
#78 = CC_DESIGN_PERSON_AND_ORGANIZATION_ASSIGNMENT ( #233, #146, ( #106 ) ) ;
#79 = CARTESIAN_POINT ( 'NONE',  ( 4.571370002489980567E-14, 2.518999999999998352, 13.09292405957597616 ) ) ;
#80 = DIRECTION ( 'NONE',  ( -3.491481338843133355E-15, 9.031770143711729009E-17, -1.000000000000000000 ) ) ;
#81 = CC_DESIGN_PERSON_AND_ORGANIZATION_ASSIGNMENT ( #85, #67, ( #17 ) ) ;
#82 = CIRCLE ( 'NONE', #66, 1.999999999999995337 ) ;
#83 = APPROVAL_ROLE ( '' ) ;
#84 = CARTESIAN_POINT ( 'NONE',  ( -2.010563623814208097E-30, 2.288059892324147970, -5.758483086953538184E-16 ) ) ;
#85 = PERSON_AND_ORGANIZATION ( #224, #2 ) ;
#86 = EDGE_CURVE ( 'NONE', #59, #59, #25, .T. ) ;
#87 = FACE_OUTER_BOUND ( 'NONE', #8, .T. ) ;
#88 = EDGE_LOOP ( 'NONE', ( #72 ) ) ;
#89 = DIRECTION ( 'NONE',  ( 1.000000000000000000, 0.0000000000000000000, 0.0000000000000000000 ) ) ;
#90 = ADVANCED_FACE ( 'NONE', ( #54, #119 ), #127, .T. ) ;
#91 = DIRECTION ( 'NONE',  ( 1.757439681154441896E-30, -1.000000000000000000, 5.033507301335744164E-16 ) ) ;
#92 = ADVANCED_FACE ( 'NONE', ( #148 ), #181, .T. ) ;
#93 = AXIS2_PLACEMENT_3D ( 'NONE', #43, #219, #112 ) ;
#94 = SECURITY_CLASSIFICATION_LEVEL ( 'unclassified' ) ;
#95 = CARTESIAN_POINT ( 'NONE',  ( 4.571370002489981830E-14, 6.590332884971014308E-15, 13.09292405957597971 ) ) ;
#96 = PERSON_AND_ORGANIZATION ( #224, #2 ) ;
#97 = PRODUCT_DEFINITION_SHAPE ( 'NONE', 'NONE',  #106 ) ;
#98 = COORDINATED_UNIVERSAL_TIME_OFFSET ( 1, 0, .AHEAD. ) ;
#99 = ORIENTED_EDGE ( 'NONE', *, *, #193, .F. ) ;
#100 = ORIENTED_EDGE ( 'NONE', *, *, #175, .T. ) ;
#101 = DIRECTION ( 'NONE',  ( -3.491481338843133355E-15, 9.031770143711729009E-17, -1.000000000000000000 ) ) ;
#102 = EDGE_LOOP ( 'NONE', ( #99 ) ) ;
#103 = FACE_BOUND ( 'NONE', #31, .T. ) ;
#104 = DIRECTION ( 'NONE',  ( -3.491481338843133355E-15, 9.031770143711729009E-17, -1.000000000000000000 ) ) ;
#105 = APPROVAL_PERSON_ORGANIZATION ( #223, #122, #201 ) ;
#106 = PRODUCT_DEFINITION ( 'UNKNOWN', '', #17, #113 ) ;
#107 = DATE_AND_TIME ( #187, #242 ) ;
#108 = DIRECTION ( 'NONE',  ( 0.0000000000000000000, 1.000000000000000000, 0.0000000000000000000 ) ) ;
#109 =( GEOMETRIC_REPRESENTATION_CONTEXT ( 3 ) GLOBAL_UNCERTAINTY_ASSIGNED_CONTEXT ( ( #206 ) ) GLOBAL_UNIT_ASSIGNED_CONTEXT ( ( #150, #61, #129 ) ) REPRESENTATION_CONTEXT ( 'NONE', 'WORKASPACE' ) );
#110 = CARTESIAN_POINT ( 'NONE',  ( 2.779219145719134403E-13, -7.189289034394536528E-15, 79.60000000000000853 ) ) ;
#111 = CC_DESIGN_PERSON_AND_ORGANIZATION_ASSIGNMENT ( #227, #190, ( #17 ) ) ;
#112 = DIRECTION ( 'NONE',  ( 0.0000000000000000000, 1.000000000000000000, 0.0000000000000000000 ) ) ;
#113 = DESIGN_CONTEXT ( 'detailed design', #3, 'design' ) ;
#114 = PRODUCT_RELATED_PRODUCT_CATEGORY ( 'detail', '', ( #136 ) ) ;
#115 = DATE_TIME_ROLE ( 'creation_date' ) ;
#116 = COORDINATED_UNIVERSAL_TIME_OFFSET ( 1, 0, .AHEAD. ) ;
#117 = AXIS2_PLACEMENT_3D ( 'NONE', #7, #159, #215 ) ;
#118 = ORIENTED_EDGE ( 'NONE', *, *, #86, .F. ) ;
#119 = FACE_OUTER_BOUND ( 'NONE', #102, .T. ) ;
#120 = EDGE_LOOP ( 'NONE', ( #11 ) ) ;
#121 = PERSON_AND_ORGANIZATION_ROLE ( 'design_owner' ) ;
#122 = APPROVAL ( #243, 'UNSPECIFIED' ) ;
#123 = CARTESIAN_POINT ( 'NONE',  ( 2.779219145719134403E-13, -7.189289034394536528E-15, 79.60000000000000853 ) ) ;
#124 = CARTESIAN_POINT ( 'NONE',  ( 2.793185071074506684E-13, -7.225416114969383207E-15, 80.00000000000000000 ) ) ;
#125 = CIRCLE ( 'NONE', #93, 2.518999999999999684 ) ;
#126 = DIRECTION ( 'NONE',  ( 3.491481338843133355E-15, -9.031770143711729009E-17, 1.000000000000000000 ) ) ;
#127 = CYLINDRICAL_SURFACE ( 'NONE', #167, 1.999999999999993561 ) ;
#128 = DIRECTION ( 'NONE',  ( -1.758491017106251093E-30, 1.000000000000000000, -4.949712180858798080E-16 ) ) ;
#129 =( NAMED_UNIT ( * ) SI_UNIT ( $, .STERADIAN. ) SOLID_ANGLE_UNIT ( ) );
#130 = DIRECTION ( 'NONE',  ( -1.757439681154441546E-30, 1.000000000000000000, -5.033507301335745150E-16 ) ) ;
#131 = ADVANCED_FACE ( 'NONE', ( #19, #103 ), #49, .T. ) ;
#132 = FACE_OUTER_BOUND ( 'NONE', #213, .T. ) ;
#133 = APPROVAL_DATE_TIME ( #107, #122 ) ;
#134 = AXIS2_PLACEMENT_3D ( 'NONE', #123, #198, #32 ) ;
#135 = SECURITY_CLASSIFICATION ( '', '', #94 ) ;
#136 = PRODUCT ( '321407', '321407', '', ( #178 ) ) ;
#137 = EDGE_LOOP ( 'NONE', ( #73 ) ) ;
#138 = ADVANCED_BREP_SHAPE_REPRESENTATION ( '321407', ( #68, #145, #168 ), #109 ) ;
#139 = ORIENTED_EDGE ( 'NONE', *, *, #163, .F. ) ;
#140 = EDGE_LOOP ( 'NONE', ( #182 ) ) ;
#141 = PERSON_AND_ORGANIZATION ( #224, #2 ) ;
#142 = LOCAL_TIME ( 11, 3, 30.00000000000000000, #204 ) ;
#143 = EDGE_LOOP ( 'NONE', ( #10 ) ) ;
#144 = VERTEX_POINT ( 'NONE', #211 ) ;
#145 = MANIFOLD_SOLID_BREP ( 'Corps-Déplacer/Copier1[2]', #239 ) ;
#146 = PERSON_AND_ORGANIZATION_ROLE ( 'creator' ) ;
#147 = DIRECTION ( 'NONE',  ( 0.0000000000000000000, 1.000000000000000000, 0.0000000000000000000 ) ) ;
#148 = FACE_OUTER_BOUND ( 'NONE', #137, .T. ) ;
#149 = CC_DESIGN_DATE_AND_TIME_ASSIGNMENT ( #45, #222, ( #135 ) ) ;
#150 =( LENGTH_UNIT ( ) NAMED_UNIT ( * ) SI_UNIT ( .MILLI., .METRE. ) );
#151 = SHAPE_DEFINITION_REPRESENTATION ( #97, #138 ) ;
#152 = APPROVAL_PERSON_ORGANIZATION ( #234, #70, #83 ) ;
#153 = APPLICATION_PROTOCOL_DEFINITION ( 'international standard', 'config_control_design', 1994, #3 ) ;
#154 = DIRECTION ( 'NONE',  ( -3.491481338843133355E-15, -5.033507301335745150E-16, -1.000000000000000000 ) ) ;
#155 = FACE_BOUND ( 'NONE', #194, .T. ) ;
#156 = CC_DESIGN_PERSON_AND_ORGANIZATION_ASSIGNMENT ( #141, #121, ( #136 ) ) ;
#157 = CARTESIAN_POINT ( 'NONE',  ( 4.571370002489981199E-14, 2.518999999999998352, 13.09292405957597794 ) ) ;
#158 = AXIS2_PLACEMENT_3D ( 'NONE', #237, #75, #147 ) ;
#159 = DIRECTION ( 'NONE',  ( -3.491481338843133355E-15, -5.033507301335745150E-16, -1.000000000000000000 ) ) ;
#160 = ORIENTED_EDGE ( 'NONE', *, *, #175, .F. ) ;
#161 = ADVANCED_FACE ( 'NONE', ( #164 ), #218, .T. ) ;
#162 = EDGE_LOOP ( 'NONE', ( #139 ) ) ;
#163 = EDGE_CURVE ( 'NONE', #144, #144, #228, .T. ) ;
#164 = FACE_OUTER_BOUND ( 'NONE', #120, .T. ) ;
#165 = CYLINDRICAL_SURFACE ( 'NONE', #199, 2.518999999999994799 ) ;
#166 = AXIS2_PLACEMENT_3D ( 'NONE', #79, #41, #23 ) ;
#167 = AXIS2_PLACEMENT_3D ( 'NONE', #197, #104, #15 ) ;
#168 = AXIS2_PLACEMENT_3D ( 'NONE', #34, #214, #89 ) ;
#169 = DIRECTION ( 'NONE',  ( 1.757439681154441546E-30, -1.000000000000000000, 5.033507301335745150E-16 ) ) ;
#170 = EDGE_CURVE ( 'NONE', #50, #50, #82, .T. ) ;
#171 = CALENDAR_DATE ( 2021, 26, 11 ) ;
#172 = ADVANCED_FACE ( 'NONE', ( #33, #74 ), #165, .T. ) ;
#173 = CARTESIAN_POINT ( 'NONE',  ( 1.396592535537257484E-15, 2.013402920534304322E-16, 0.4000000000000011879 ) ) ;
#174 = CLOSED_SHELL ( 'NONE', ( #161, #9, #90, #62, #53 ) ) ;
#175 = EDGE_CURVE ( 'NONE', #235, #235, #125, .T. ) ;
#176 = DATE_AND_TIME ( #191, #28 ) ;
#177 = EDGE_LOOP ( 'NONE', ( #230 ) ) ;
#178 = MECHANICAL_CONTEXT ( 'NONE', #27, 'mechanical' ) ;
#179 = AXIS2_PLACEMENT_3D ( 'NONE', #84, #26, #130 ) ;
#180 = EDGE_CURVE ( 'NONE', #241, #241, #29, .T. ) ;
#181 = PLANE ( 'NONE',  #179 ) ;
#182 = ORIENTED_EDGE ( 'NONE', *, *, #236, .T. ) ;
#183 = DIRECTION ( 'NONE',  ( -3.491481338843133355E-15, 9.031770143711729009E-17, -1.000000000000000000 ) ) ;
#184 = DIRECTION ( 'NONE',  ( -3.153425691349006731E-31, -1.000000000000000000, -9.031770143711729009E-17 ) ) ;
#185 = COORDINATED_UNIVERSAL_TIME_OFFSET ( 1, 0, .AHEAD. ) ;
#186 = AXIS2_PLACEMENT_3D ( 'NONE', #95, #217, #57 ) ;
#187 = CALENDAR_DATE ( 2021, 26, 11 ) ;
#188 = APPROVAL_ROLE ( '' ) ;
#189 = AXIS2_PLACEMENT_3D ( 'NONE', #229, #101, #69 ) ;
#190 = PERSON_AND_ORGANIZATION_ROLE ( 'creator' ) ;
#191 = CALENDAR_DATE ( 2021, 26, 11 ) ;
#192 = ORIENTED_EDGE ( 'NONE', *, *, #180, .F. ) ;
#193 = EDGE_CURVE ( 'NONE', #77, #77, #76, .T. ) ;
#194 = EDGE_LOOP ( 'NONE', ( #30 ) ) ;
#195 = CC_DESIGN_APPROVAL ( #70, ( #106 ) ) ;
#196 = EDGE_LOOP ( 'NONE', ( #192 ) ) ;
#197 = CARTESIAN_POINT ( 'NONE',  ( 0.0000000000000000000, 0.0000000000000000000, 0.0000000000000000000 ) ) ;
#198 = DIRECTION ( 'NONE',  ( -3.491481338843133355E-15, 9.031770143711729009E-17, -1.000000000000000000 ) ) ;
#199 = AXIS2_PLACEMENT_3D ( 'NONE', #14, #221, #16 ) ;
#200 = DIRECTION ( 'NONE',  ( 0.0000000000000000000, 1.000000000000000000, 0.0000000000000000000 ) ) ;
#201 = APPROVAL_ROLE ( '' ) ;
#202 = APPROVAL ( #209, 'UNSPECIFIED' ) ;
#203 = CONICAL_SURFACE ( 'NONE', #134, 1.999999999999995337, 0.7853981633974516097 ) ;
#204 = COORDINATED_UNIVERSAL_TIME_OFFSET ( 1, 0, .AHEAD. ) ;
#205 = PLANE ( 'NONE',  #166 ) ;
#206 = UNCERTAINTY_MEASURE_WITH_UNIT (LENGTH_MEASURE( 1.000000000000000082E-05 ), #150, 'distance_accuracy_value', 'NONE');
#207 = PERSON_AND_ORGANIZATION ( #224, #2 ) ;
#208 = DATE_AND_TIME ( #51, #6 ) ;
#209 = APPROVAL_STATUS ( 'not_yet_approved' ) ;
#210 = AXIS2_PLACEMENT_3D ( 'NONE', #124, #183, #200 ) ;
#211 = CARTESIAN_POINT ( 'NONE',  ( 1.396592535537253145E-15, 2.518999999999997907, 0.3999999999999999667 ) ) ;
#212 = CIRCLE ( 'NONE', #210, 1.599999999999994982 ) ;
#213 = EDGE_LOOP ( 'NONE', ( #100 ) ) ;
#214 = DIRECTION ( 'NONE',  ( 0.0000000000000000000, 0.0000000000000000000, 1.000000000000000000 ) ) ;
#215 = DIRECTION ( 'NONE',  ( -1.757439681154441896E-30, 1.000000000000000000, -5.033507301335744164E-16 ) ) ;
#216 = APPROVAL_DATE_TIME ( #208, #202 ) ;
#217 = DIRECTION ( 'NONE',  ( -3.491481338843133355E-15, -5.033507301335745150E-16, -1.000000000000000000 ) ) ;
#218 = PLANE ( 'NONE',  #21 ) ;
#219 = DIRECTION ( 'NONE',  ( -3.491481338843133355E-15, 9.031770143711729009E-17, -1.000000000000000000 ) ) ;
#220 = COORDINATED_UNIVERSAL_TIME_OFFSET ( 1, 0, .AHEAD. ) ;
#221 = DIRECTION ( 'NONE',  ( -3.491481338843133355E-15, -5.033507301335745150E-16, -1.000000000000000000 ) ) ;
#222 = DATE_TIME_ROLE ( 'classification_date' ) ;
#223 = PERSON_AND_ORGANIZATION ( #224, #2 ) ;
#224 = PERSON ( 'UNSPECIFIED', 'UNSPECIFIED', 'UNSPECIFIED', ('UNSPECIFIED'), ('UNSPECIFIED'), ('UNSPECIFIED') ) ;
#225 = CC_DESIGN_SECURITY_CLASSIFICATION ( #135, ( #17 ) ) ;
#226 = CALENDAR_DATE ( 2021, 26, 11 ) ;
#227 = PERSON_AND_ORGANIZATION ( #224, #2 ) ;
#228 = CIRCLE ( 'NONE', #46, 2.518999999999997907 ) ;
#229 = CARTESIAN_POINT ( 'NONE',  ( 4.571370002489981199E-14, -1.182522806151632814E-15, 13.09292405957597794 ) ) ;
#230 = ORIENTED_EDGE ( 'NONE', *, *, #180, .T. ) ;
#231 = ORIENTED_EDGE ( 'NONE', *, *, #170, .F. ) ;
#232 = CC_DESIGN_APPROVAL ( #122, ( #135 ) ) ;
#233 = PERSON_AND_ORGANIZATION ( #224, #2 ) ;
#234 = PERSON_AND_ORGANIZATION ( #224, #2 ) ;
#235 = VERTEX_POINT ( 'NONE', #40 ) ;
#236 = EDGE_CURVE ( 'NONE', #44, #44, #212, .T. ) ;
#237 = CARTESIAN_POINT ( 'NONE',  ( 4.885231259955590439E-14, -1.263712492114123682E-15, 13.99185842870425134 ) ) ;
#238 = AXIS2_PLACEMENT_3D ( 'NONE', #18, #64, #169 ) ;
#239 = CLOSED_SHELL ( 'NONE', ( #13, #172, #131, #92 ) ) ;
#240 = CC_DESIGN_APPROVAL ( #202, ( #17 ) ) ;
#241 = VERTEX_POINT ( 'NONE', #157 ) ;
#242 = LOCAL_TIME ( 11, 3, 30.00000000000000000, #220 ) ;
#243 = APPROVAL_STATUS ( 'not_yet_approved' ) ;
ENDSEC;
END-ISO-10303-21;
