ISO-10303-21;
HEADER;
FILE_DESCRIPTION (( 'STEP AP203' ),
    '1' );
FILE_NAME ('321406.step',
    '2021-11-26T10:03:29',
    ( '' ),
    ( '' ),
    'SwSTEP 2.0',
    'SolidWorks 2019',
    '' );
FILE_SCHEMA (( 'CONFIG_CONTROL_DESIGN' ));
ENDSEC;

DATA;
#1 = EDGE_LOOP ( 'NONE', ( #58 ) ) ;
#2 = LOCAL_TIME ( 11, 3, 29.00000000000000000, #134 ) ;
#3 = EDGE_LOOP ( 'NONE', ( #195 ) ) ;
#4 = APPROVAL_ROLE ( '' ) ;
#5 = UNCERTAINTY_MEASURE_WITH_UNIT (LENGTH_MEASURE( 1.000000000000000082E-05 ), #19, 'distance_accuracy_value', 'NONE');
#6 = PERSON ( 'UNSPECIFIED', 'UNSPECIFIED', 'UNSPECIFIED', ('UNSPECIFIED'), ('UNSPECIFIED'), ('UNSPECIFIED') ) ;
#7 = APPROVAL_PERSON_ORGANIZATION ( #98, #67, #4 ) ;
#8 = PERSON_AND_ORGANIZATION ( #6, #46 ) ;
#9 = DATE_AND_TIME ( #163, #14 ) ;
#10 = CARTESIAN_POINT ( 'NONE',  ( 4.574393714026259334E-14, 6.588211734493553175E-15, 13.10158431361382547 ) ) ;
#11 = DIRECTION ( 'NONE',  ( -2.451462140827038786E-30, 1.000000000000000000, -6.900252489963456416E-16 ) ) ;
#12 = AXIS2_PLACEMENT_3D ( 'NONE', #149, #73, #90 ) ;
#13 = VERTEX_POINT ( 'NONE', #241 ) ;
#14 = LOCAL_TIME ( 11, 3, 29.00000000000000000, #82 ) ;
#15 = DIRECTION ( 'NONE',  ( -3.491481338843133355E-15, 9.031770143711729009E-17, -1.000000000000000000 ) ) ;
#16 = DIRECTION ( 'NONE',  ( -3.491481338843133355E-15, 9.031770143711729009E-17, -1.000000000000000000 ) ) ;
#17 = EDGE_CURVE ( 'NONE', #13, #13, #145, .T. ) ;
#18 = AXIS2_PLACEMENT_3D ( 'NONE', #148, #147, #34 ) ;
#19 =( LENGTH_UNIT ( ) NAMED_UNIT ( * ) SI_UNIT ( .MILLI., .METRE. ) );
#20 = CC_DESIGN_PERSON_AND_ORGANIZATION_ASSIGNMENT ( #162, #26, ( #103 ) ) ;
#21 = ORIENTED_EDGE ( 'NONE', *, *, #114, .F. ) ;
#22 = DIRECTION ( 'NONE',  ( -3.491481338843133355E-15, 9.031770143711729009E-17, -1.000000000000000000 ) ) ;
#23 = APPLICATION_PROTOCOL_DEFINITION ( 'international standard', 'config_control_design', 1994, #233 ) ;
#24 = DESIGN_CONTEXT ( 'detailed design', #221, 'design' ) ;
#25 = APPLICATION_PROTOCOL_DEFINITION ( 'international standard', 'config_control_design', 1994, #221 ) ;
#26 = PERSON_AND_ORGANIZATION_ROLE ( 'creator' ) ;
#27 = SECURITY_CLASSIFICATION_LEVEL ( 'unclassified' ) ;
#28 = AXIS2_PLACEMENT_3D ( 'NONE', #156, #62, #136 ) ;
#29 = PLANE ( 'NONE',  #105 ) ;
#30 = DIRECTION ( 'NONE',  ( -3.491481338843133355E-15, -5.028561108939899928E-16, -1.000000000000000000 ) ) ;
#31 = CARTESIAN_POINT ( 'NONE',  ( 2.793185071074506684E-13, -7.225416114969383207E-15, 80.00000000000000000 ) ) ;
#32 = CARTESIAN_POINT ( 'NONE',  ( 2.779219145719134403E-13, -7.189289034394536528E-15, 79.60000000000000853 ) ) ;
#33 = AXIS2_PLACEMENT_3D ( 'NONE', #141, #158, #181 ) ;
#34 = DIRECTION ( 'NONE',  ( 0.0000000000000000000, 1.000000000000000000, 0.0000000000000000000 ) ) ;
#35 = CARTESIAN_POINT ( 'NONE',  ( 4.574393714026258703E-14, 2.513999999999998014, 13.10158431361382370 ) ) ;
#36 =( NAMED_UNIT ( * ) PLANE_ANGLE_UNIT ( ) SI_UNIT ( $, .RADIAN. ) );
#37 = CARTESIAN_POINT ( 'NONE',  ( 2.793185071074506684E-13, -7.225416114969383207E-15, 80.00000000000000000 ) ) ;
#38 = PERSON_AND_ORGANIZATION_ROLE ( 'creator' ) ;
#39 = FACE_OUTER_BOUND ( 'NONE', #208, .T. ) ;
#40 = DATE_AND_TIME ( #118, #128 ) ;
#41 = ORIENTED_EDGE ( 'NONE', *, *, #124, .F. ) ;
#42 = EDGE_CURVE ( 'NONE', #53, #53, #133, .T. ) ;
#43 = DIRECTION ( 'NONE',  ( 0.0000000000000000000, 1.000000000000000000, 0.0000000000000000000 ) ) ;
#44 = AXIS2_PLACEMENT_3D ( 'NONE', #171, #30, #203 ) ;
#45 = CALENDAR_DATE ( 2021, 26, 11 ) ;
#46 = ORGANIZATION ( 'UNSPECIFIED', 'UNSPECIFIED', '' ) ;
#47 = DIRECTION ( 'NONE',  ( -3.491481338843133355E-15, 9.031770143711729009E-17, -1.000000000000000000 ) ) ;
#48 = FACE_OUTER_BOUND ( 'NONE', #161, .T. ) ;
#49 = FACE_OUTER_BOUND ( 'NONE', #177, .T. ) ;
#50 = PLANE ( 'NONE',  #218 ) ;
#51 = CARTESIAN_POINT ( 'NONE',  ( 2.779219145719134403E-13, 1.999999999999988010, 79.60000000000000853 ) ) ;
#52 = ADVANCED_BREP_SHAPE_REPRESENTATION ( '321406', ( #138, #55, #33 ), #84 ) ;
#53 = VERTEX_POINT ( 'NONE', #191 ) ;
#54 = CONICAL_SURFACE ( 'NONE', #227, 2.513999999999999346, 0.5235987755982928205 ) ;
#55 = MANIFOLD_SOLID_BREP ( 'Corps-Déplacer/Copier1[2]', #91 ) ;
#56 = EDGE_LOOP ( 'NONE', ( #41 ) ) ;
#57 = CARTESIAN_POINT ( 'NONE',  ( 6.842277657836020854E-46, 2.283059892324147633, 0.0000000000000000000 ) ) ;
#58 = ORIENTED_EDGE ( 'NONE', *, *, #124, .T. ) ;
#59 = ADVANCED_FACE ( 'NONE', ( #39 ), #123, .T. ) ;
#60 = PERSON_AND_ORGANIZATION ( #6, #46 ) ;
#61 = APPROVAL_PERSON_ORGANIZATION ( #60, #129, #137 ) ;
#62 = DIRECTION ( 'NONE',  ( -3.491481338843133355E-15, -5.028561108939899928E-16, -1.000000000000000000 ) ) ;
#63 = COORDINATED_UNIVERSAL_TIME_OFFSET ( 1, 0, .AHEAD. ) ;
#64 = DATE_TIME_ROLE ( 'classification_date' ) ;
#65 = APPROVAL ( #228, 'UNSPECIFIED' ) ;
#66 = CALENDAR_DATE ( 2021, 26, 11 ) ;
#67 = APPROVAL ( #179, 'UNSPECIFIED' ) ;
#68 = APPROVAL_DATE_TIME ( #9, #67 ) ;
#69 = CARTESIAN_POINT ( 'NONE',  ( -2.004198655081795120E-30, 2.283059892324147633, -5.740253091960862853E-16 ) ) ;
#70 = DIRECTION ( 'NONE',  ( -1.755712727309599147E-30, 1.000000000000000000, -5.028561108939899928E-16 ) ) ;
#71 = FACE_OUTER_BOUND ( 'NONE', #153, .T. ) ;
#72 = ADVANCED_FACE ( 'NONE', ( #201, #202 ), #54, .T. ) ;
#73 = DIRECTION ( 'NONE',  ( -3.491481338843133355E-15, 9.031770143711729009E-17, -1.000000000000000000 ) ) ;
#74 = DIRECTION ( 'NONE',  ( 3.153425691349006731E-31, 1.000000000000000000, 9.031770143711729009E-17 ) ) ;
#75 = ADVANCED_FACE ( 'NONE', ( #182, #89 ), #166, .T. ) ;
#76 = ORIENTED_EDGE ( 'NONE', *, *, #206, .F. ) ;
#77 = DIRECTION ( 'NONE',  ( 0.0000000000000000000, 1.000000000000000000, 0.0000000000000000000 ) ) ;
#78 = AXIS2_PLACEMENT_3D ( 'NONE', #32, #15, #170 ) ;
#79 = ORIENTED_EDGE ( 'NONE', *, *, #42, .T. ) ;
#80 = EDGE_CURVE ( 'NONE', #151, #151, #200, .T. ) ;
#81 = ORIENTED_EDGE ( 'NONE', *, *, #17, .F. ) ;
#82 = COORDINATED_UNIVERSAL_TIME_OFFSET ( 1, 0, .AHEAD. ) ;
#83 = DATE_TIME_ROLE ( 'creation_date' ) ;
#84 =( GEOMETRIC_REPRESENTATION_CONTEXT ( 3 ) GLOBAL_UNCERTAINTY_ASSIGNED_CONTEXT ( ( #5 ) ) GLOBAL_UNIT_ASSIGNED_CONTEXT ( ( #19, #36, #99 ) ) REPRESENTATION_CONTEXT ( 'NONE', 'WORKASPACE' ) );
#85 = DIRECTION ( 'NONE',  ( -1.755712727309599147E-30, 1.000000000000000000, -5.028561108939899928E-16 ) ) ;
#86 = CARTESIAN_POINT ( 'NONE',  ( 0.0000000000000000000, 0.0000000000000000000, 0.0000000000000000000 ) ) ;
#87 = CC_DESIGN_PERSON_AND_ORGANIZATION_ASSIGNMENT ( #116, #38, ( #223 ) ) ;
#88 = DIRECTION ( 'NONE',  ( -3.491481338843133355E-15, -5.028561108939899928E-16, -1.000000000000000000 ) ) ;
#89 = FACE_OUTER_BOUND ( 'NONE', #56, .T. ) ;
#90 = DIRECTION ( 'NONE',  ( 0.0000000000000000000, 1.000000000000000000, 0.0000000000000000000 ) ) ;
#91 = CLOSED_SHELL ( 'NONE', ( #165, #213, #194, #59 ) ) ;
#92 = ORIENTED_EDGE ( 'NONE', *, *, #42, .F. ) ;
#93 = CONICAL_SURFACE ( 'NONE', #78, 1.999999999999995337, 0.7853981633974516097 ) ;
#94 = EDGE_LOOP ( 'NONE', ( #81 ) ) ;
#95 = EDGE_CURVE ( 'NONE', #224, #224, #152, .T. ) ;
#96 = PERSON_AND_ORGANIZATION ( #6, #46 ) ;
#97 = CC_DESIGN_APPROVAL ( #65, ( #103 ) ) ;
#98 = PERSON_AND_ORGANIZATION ( #6, #46 ) ;
#99 =( NAMED_UNIT ( * ) SI_UNIT ( $, .STERADIAN. ) SOLID_ANGLE_UNIT ( ) );
#100 = PERSON_AND_ORGANIZATION ( #6, #46 ) ;
#101 = CARTESIAN_POINT ( 'NONE',  ( 4.574393714026259334E-14, 2.513999999999998014, 13.10158431361382547 ) ) ;
#102 = FACE_BOUND ( 'NONE', #117, .T. ) ;
#103 = PRODUCT_DEFINITION ( 'UNKNOWN', '', #223, #24 ) ;
#104 = DIRECTION ( 'NONE',  ( 3.491481338843133355E-15, -9.031770143711729009E-17, 1.000000000000000000 ) ) ;
#105 = AXIS2_PLACEMENT_3D ( 'NONE', #232, #167, #204 ) ;
#106 = LOCAL_TIME ( 11, 3, 29.00000000000000000, #193 ) ;
#107 = CARTESIAN_POINT ( 'NONE',  ( 4.008397310163590239E-30, 5.773042690741281275E-31, 1.148050618392172571E-15 ) ) ;
#108 = FACE_BOUND ( 'NONE', #175, .T. ) ;
#109 = CONICAL_SURFACE ( 'NONE', #135, 2.283059892324147633, 0.5235987755982978165 ) ;
#110 = CLOSED_SHELL ( 'NONE', ( #239, #234, #75, #72, #189 ) ) ;
#111 = ORIENTED_EDGE ( 'NONE', *, *, #95, .F. ) ;
#112 = VERTEX_POINT ( 'NONE', #35 ) ;
#113 = CC_DESIGN_APPROVAL ( #129, ( #223 ) ) ;
#114 = EDGE_CURVE ( 'NONE', #154, #154, #157, .T. ) ;
#115 = EDGE_LOOP ( 'NONE', ( #92 ) ) ;
#116 = PERSON_AND_ORGANIZATION ( #6, #46 ) ;
#117 = EDGE_LOOP ( 'NONE', ( #21 ) ) ;
#118 = CALENDAR_DATE ( 2021, 26, 11 ) ;
#119 = CARTESIAN_POINT ( 'NONE',  ( 4.885231259955590439E-14, -1.263712492114123682E-15, 13.99185842870425134 ) ) ;
#120 = APPROVAL_DATE_TIME ( #229, #65 ) ;
#121 = APPROVAL_ROLE ( '' ) ;
#122 = PRODUCT_RELATED_PRODUCT_CATEGORY ( 'detail', '', ( #197 ) ) ;
#123 = PLANE ( 'NONE',  #172 ) ;
#124 = EDGE_CURVE ( 'NONE', #207, #207, #190, .T. ) ;
#125 = FACE_OUTER_BOUND ( 'NONE', #94, .T. ) ;
#126 = DIRECTION ( 'NONE',  ( -3.491481338843133355E-15, 9.031770143711729009E-17, -1.000000000000000000 ) ) ;
#127 = FACE_OUTER_BOUND ( 'NONE', #192, .T. ) ;
#128 = LOCAL_TIME ( 11, 3, 29.00000000000000000, #63 ) ;
#129 = APPROVAL ( #180, 'UNSPECIFIED' ) ;
#130 = ORIENTED_EDGE ( 'NONE', *, *, #114, .T. ) ;
#131 = CARTESIAN_POINT ( 'NONE',  ( 4.885231259955590439E-14, 1.999999999999990452, 13.99185842870425134 ) ) ;
#132 = EDGE_LOOP ( 'NONE', ( #211 ) ) ;
#133 = CIRCLE ( 'NONE', #28, 2.513999999999997570 ) ;
#134 = COORDINATED_UNIVERSAL_TIME_OFFSET ( 1, 0, .AHEAD. ) ;
#135 = AXIS2_PLACEMENT_3D ( 'NONE', #107, #183, #236 ) ;
#136 = DIRECTION ( 'NONE',  ( -1.761988413719429836E-30, 1.000000000000000000, -4.959556477161222220E-16 ) ) ;
#137 = APPROVAL_ROLE ( '' ) ;
#138 = MANIFOLD_SOLID_BREP ( 'Corps-Déplacer/Copier1[1]', #110 ) ;
#139 = APPROVAL_DATE_TIME ( #199, #129 ) ;
#140 = AXIS2_PLACEMENT_3D ( 'NONE', #31, #104, #184 ) ;
#141 = CARTESIAN_POINT ( 'NONE',  ( 0.0000000000000000000, 0.0000000000000000000, 0.0000000000000000000 ) ) ;
#142 = SHAPE_DEFINITION_REPRESENTATION ( #198, #52 ) ;
#143 = PLANE ( 'NONE',  #140 ) ;
#144 = CIRCLE ( 'NONE', #238, 2.513999999999991353 ) ;
#145 = CIRCLE ( 'NONE', #237, 1.599999999999994982 ) ;
#146 = DIRECTION ( 'NONE',  ( 3.153425691349006731E-31, 1.000000000000000000, 9.031770143711729009E-17 ) ) ;
#147 = DIRECTION ( 'NONE',  ( -3.491481338843133355E-15, 9.031770143711729009E-17, -1.000000000000000000 ) ) ;
#148 = CARTESIAN_POINT ( 'NONE',  ( 2.779219145719134403E-13, -7.189289034394536528E-15, 79.60000000000000853 ) ) ;
#149 = CARTESIAN_POINT ( 'NONE',  ( 4.574393714026258703E-14, -1.183304980390192702E-15, 13.10158431361382370 ) ) ;
#150 = CC_DESIGN_PERSON_AND_ORGANIZATION_ASSIGNMENT ( #8, #226, ( #197 ) ) ;
#151 = VERTEX_POINT ( 'NONE', #240 ) ;
#152 = CIRCLE ( 'NONE', #18, 1.999999999999995337 ) ;
#153 = EDGE_LOOP ( 'NONE', ( #79 ) ) ;
#154 = VERTEX_POINT ( 'NONE', #57 ) ;
#155 = ORIENTED_EDGE ( 'NONE', *, *, #80, .F. ) ;
#156 = CARTESIAN_POINT ( 'NONE',  ( 1.396592535537257484E-15, 2.011424443575966233E-16, 0.4000000000000011879 ) ) ;
#157 = CIRCLE ( 'NONE', #44, 2.283059892324147633 ) ;
#158 = DIRECTION ( 'NONE',  ( 0.0000000000000000000, 0.0000000000000000000, 1.000000000000000000 ) ) ;
#159 = AXIS2_PLACEMENT_3D ( 'NONE', #205, #220, #70 ) ;
#160 = COORDINATED_UNIVERSAL_TIME_OFFSET ( 1, 0, .AHEAD. ) ;
#161 = EDGE_LOOP ( 'NONE', ( #76 ) ) ;
#162 = PERSON_AND_ORGANIZATION ( #6, #46 ) ;
#163 = CALENDAR_DATE ( 2021, 26, 11 ) ;
#164 = CC_DESIGN_PERSON_AND_ORGANIZATION_ASSIGNMENT ( #176, #214, ( #186 ) ) ;
#165 = ADVANCED_FACE ( 'NONE', ( #48 ), #29, .T. ) ;
#166 = CYLINDRICAL_SURFACE ( 'NONE', #216, 1.999999999999993561 ) ;
#167 = DIRECTION ( 'NONE',  ( 3.491481338843133355E-15, 5.028561108939899928E-16, 1.000000000000000000 ) ) ;
#168 = CC_DESIGN_SECURITY_CLASSIFICATION ( #186, ( #223 ) ) ;
#169 = FACE_OUTER_BOUND ( 'NONE', #115, .T. ) ;
#170 = DIRECTION ( 'NONE',  ( 0.0000000000000000000, 1.000000000000000000, 0.0000000000000000000 ) ) ;
#171 = CARTESIAN_POINT ( 'NONE',  ( 4.008397310163590239E-30, 5.773042690741281275E-31, 1.148050618392172571E-15 ) ) ;
#172 = AXIS2_PLACEMENT_3D ( 'NONE', #69, #188, #85 ) ;
#173 = APPROVAL_PERSON_ORGANIZATION ( #100, #65, #121 ) ;
#174 = ORIENTED_EDGE ( 'NONE', *, *, #17, .T. ) ;
#175 = EDGE_LOOP ( 'NONE', ( #174 ) ) ;
#176 = PERSON_AND_ORGANIZATION ( #6, #46 ) ;
#177 = EDGE_LOOP ( 'NONE', ( #111 ) ) ;
#178 = CC_DESIGN_DATE_AND_TIME_ASSIGNMENT ( #40, #83, ( #103 ) ) ;
#179 = APPROVAL_STATUS ( 'not_yet_approved' ) ;
#180 = APPROVAL_STATUS ( 'not_yet_approved' ) ;
#181 = DIRECTION ( 'NONE',  ( 1.000000000000000000, 0.0000000000000000000, 0.0000000000000000000 ) ) ;
#182 = FACE_OUTER_BOUND ( 'NONE', #132, .T. ) ;
#183 = DIRECTION ( 'NONE',  ( 3.491481338843133355E-15, 5.028561108939899928E-16, 1.000000000000000000 ) ) ;
#184 = DIRECTION ( 'NONE',  ( -3.153425691349006731E-31, -1.000000000000000000, -9.031770143711729009E-17 ) ) ;
#185 = AXIS2_PLACEMENT_3D ( 'NONE', #119, #16, #43 ) ;
#186 = SECURITY_CLASSIFICATION ( '', '', #27 ) ;
#187 = DIRECTION ( 'NONE',  ( -3.491481338843133355E-15, 9.031770143711729009E-17, -1.000000000000000000 ) ) ;
#188 = DIRECTION ( 'NONE',  ( -3.491481338843133355E-15, -5.028561108939899928E-16, -1.000000000000000000 ) ) ;
#189 = ADVANCED_FACE ( 'NONE', ( #235 ), #50, .T. ) ;
#190 = CIRCLE ( 'NONE', #185, 1.999999999999991784 ) ;
#191 = CARTESIAN_POINT ( 'NONE',  ( 1.396592535537253145E-15, 2.513999999999997570, 0.3999999999999999667 ) ) ;
#192 = EDGE_LOOP ( 'NONE', ( #243 ) ) ;
#193 = COORDINATED_UNIVERSAL_TIME_OFFSET ( 1, 0, .AHEAD. ) ;
#194 = ADVANCED_FACE ( 'NONE', ( #71, #102 ), #109, .T. ) ;
#195 = ORIENTED_EDGE ( 'NONE', *, *, #80, .T. ) ;
#196 = DATE_AND_TIME ( #45, #210 ) ;
#197 = PRODUCT ( '321406', '321406', '', ( #212 ) ) ;
#198 = PRODUCT_DEFINITION_SHAPE ( 'NONE', 'NONE',  #103 ) ;
#199 = DATE_AND_TIME ( #66, #2 ) ;
#200 = CIRCLE ( 'NONE', #12, 2.513999999999999346 ) ;
#201 = FACE_BOUND ( 'NONE', #1, .T. ) ;
#202 = FACE_OUTER_BOUND ( 'NONE', #209, .T. ) ;
#203 = DIRECTION ( 'NONE',  ( -1.755712727309599497E-30, 1.000000000000000000, -5.028561108939900914E-16 ) ) ;
#204 = DIRECTION ( 'NONE',  ( 1.755712727309599147E-30, -1.000000000000000000, 5.028561108939899928E-16 ) ) ;
#205 = CARTESIAN_POINT ( 'NONE',  ( 0.0000000000000000000, 0.0000000000000000000, 0.0000000000000000000 ) ) ;
#206 = EDGE_CURVE ( 'NONE', #112, #112, #144, .T. ) ;
#207 = VERTEX_POINT ( 'NONE', #131 ) ;
#208 = EDGE_LOOP ( 'NONE', ( #130 ) ) ;
#209 = EDGE_LOOP ( 'NONE', ( #155 ) ) ;
#210 = LOCAL_TIME ( 11, 3, 29.00000000000000000, #160 ) ;
#211 = ORIENTED_EDGE ( 'NONE', *, *, #95, .T. ) ;
#212 = MECHANICAL_CONTEXT ( 'NONE', #233, 'mechanical' ) ;
#213 = ADVANCED_FACE ( 'NONE', ( #127, #169 ), #219, .T. ) ;
#214 = PERSON_AND_ORGANIZATION_ROLE ( 'classification_officer' ) ;
#215 = PERSON_AND_ORGANIZATION_ROLE ( 'design_supplier' ) ;
#216 = AXIS2_PLACEMENT_3D ( 'NONE', #86, #126, #74 ) ;
#217 = DIRECTION ( 'NONE',  ( 0.0000000000000000000, 1.000000000000000000, 0.0000000000000000000 ) ) ;
#218 = AXIS2_PLACEMENT_3D ( 'NONE', #101, #187, #146 ) ;
#219 = CYLINDRICAL_SURFACE ( 'NONE', #159, 2.513999999999994461 ) ;
#220 = DIRECTION ( 'NONE',  ( -3.491481338843133355E-15, -5.028561108939899928E-16, -1.000000000000000000 ) ) ;
#221 = APPLICATION_CONTEXT ( 'configuration controlled 3d designs of mechanical parts and assemblies' ) ;
#222 = CARTESIAN_POINT ( 'NONE',  ( 4.574393714026258703E-14, -1.183304980390192702E-15, 13.10158431361382370 ) ) ;
#223 = PRODUCT_DEFINITION_FORMATION_WITH_SPECIFIED_SOURCE ( 'ANY', '', #197, .NOT_KNOWN. ) ;
#224 = VERTEX_POINT ( 'NONE', #51 ) ;
#225 = CC_DESIGN_DATE_AND_TIME_ASSIGNMENT ( #196, #64, ( #186 ) ) ;
#226 = PERSON_AND_ORGANIZATION_ROLE ( 'design_owner' ) ;
#227 = AXIS2_PLACEMENT_3D ( 'NONE', #222, #47, #217 ) ;
#228 = APPROVAL_STATUS ( 'not_yet_approved' ) ;
#229 = DATE_AND_TIME ( #230, #106 ) ;
#230 = CALENDAR_DATE ( 2021, 26, 11 ) ;
#231 = CC_DESIGN_APPROVAL ( #67, ( #186 ) ) ;
#232 = CARTESIAN_POINT ( 'NONE',  ( 4.574393714026259334E-14, 6.588211734493553964E-15, 13.10158431361382547 ) ) ;
#233 = APPLICATION_CONTEXT ( 'configuration controlled 3d designs of mechanical parts and assemblies' ) ;
#234 = ADVANCED_FACE ( 'NONE', ( #108, #49 ), #93, .T. ) ;
#235 = FACE_OUTER_BOUND ( 'NONE', #3, .T. ) ;
#236 = DIRECTION ( 'NONE',  ( 1.755712727309599848E-30, -1.000000000000000000, 5.028561108939900914E-16 ) ) ;
#237 = AXIS2_PLACEMENT_3D ( 'NONE', #37, #22, #77 ) ;
#238 = AXIS2_PLACEMENT_3D ( 'NONE', #10, #88, #11 ) ;
#239 = ADVANCED_FACE ( 'NONE', ( #125 ), #143, .T. ) ;
#240 = CARTESIAN_POINT ( 'NONE',  ( 4.574393714026258703E-14, 2.513999999999998014, 13.10158431361382370 ) ) ;
#241 = CARTESIAN_POINT ( 'NONE',  ( 2.793185071074506684E-13, 1.599999999999987876, 80.00000000000000000 ) ) ;
#242 = CC_DESIGN_PERSON_AND_ORGANIZATION_ASSIGNMENT ( #96, #215, ( #223 ) ) ;
#243 = ORIENTED_EDGE ( 'NONE', *, *, #206, .T. ) ;
ENDSEC;
END-ISO-10303-21;
