ISO-10303-21;
HEADER;
FILE_DESCRIPTION (( 'STEP AP203' ),
    '1' );
FILE_NAME ('321405.step',
    '2021-11-26T10:03:29',
    ( '' ),
    ( '' ),
    'SwSTEP 2.0',
    'SolidWorks 2019',
    '' );
FILE_SCHEMA (( 'CONFIG_CONTROL_DESIGN' ));
ENDSEC;

DATA;
#1 = EDGE_LOOP ( 'NONE', ( #156 ) ) ;
#2 = CIRCLE ( 'NONE', #176, 1.999999999999995337 ) ;
#3 = CC_DESIGN_DATE_AND_TIME_ASSIGNMENT ( #205, #188, ( #162 ) ) ;
#4 = DIRECTION ( 'NONE',  ( 3.153425691349006731E-31, 1.000000000000000000, 9.031770143711729009E-17 ) ) ;
#5 = VERTEX_POINT ( 'NONE', #66 ) ;
#6 = ADVANCED_FACE ( 'NONE', ( #222 ), #192, .T. ) ;
#7 = CC_DESIGN_APPROVAL ( #238, ( #45 ) ) ;
#8 = DIRECTION ( 'NONE',  ( -1.753988055017775990E-30, 1.000000000000000000, -5.023621451171616716E-16 ) ) ;
#9 = DIRECTION ( 'NONE',  ( 0.0000000000000000000, 1.000000000000000000, 0.0000000000000000000 ) ) ;
#10 = FACE_OUTER_BOUND ( 'NONE', #172, .T. ) ;
#11 = AXIS2_PLACEMENT_3D ( 'NONE', #33, #126, #89 ) ;
#12 = DATE_TIME_ROLE ( 'classification_date' ) ;
#13 = PERSON_AND_ORGANIZATION_ROLE ( 'creator' ) ;
#14 = APPLICATION_PROTOCOL_DEFINITION ( 'international standard', 'config_control_design', 1994, #27 ) ;
#15 = FACE_BOUND ( 'NONE', #1, .T. ) ;
#16 = AXIS2_PLACEMENT_3D ( 'NONE', #198, #214, #9 ) ;
#17 = DIRECTION ( 'NONE',  ( -3.491481338843133355E-15, -5.023621451171616716E-16, -1.000000000000000000 ) ) ;
#18 = EDGE_LOOP ( 'NONE', ( #152 ) ) ;
#19 = CONICAL_SURFACE ( 'NONE', #16, 2.508999999999999453, 0.5235987755982932645 ) ;
#20 = ORIENTED_EDGE ( 'NONE', *, *, #146, .T. ) ;
#21 = DIRECTION ( 'NONE',  ( 0.0000000000000000000, 1.000000000000000000, 0.0000000000000000000 ) ) ;
#22 = PRODUCT_RELATED_PRODUCT_CATEGORY ( 'detail', '', ( #25 ) ) ;
#23 = CARTESIAN_POINT ( 'NONE',  ( 0.0000000000000000000, 0.0000000000000000000, 0.0000000000000000000 ) ) ;
#24 = VERTEX_POINT ( 'NONE', #83 ) ;
#25 = PRODUCT ( '321405', '321405', '', ( #168 ) ) ;
#26 = FACE_OUTER_BOUND ( 'NONE', #77, .T. ) ;
#27 = APPLICATION_CONTEXT ( 'configuration controlled 3d designs of mechanical parts and assemblies' ) ;
#28 = DIRECTION ( 'NONE',  ( -3.491481338843133355E-15, -5.023621451171616716E-16, -1.000000000000000000 ) ) ;
#29 = EDGE_CURVE ( 'NONE', #230, #230, #130, .T. ) ;
#30 = COORDINATED_UNIVERSAL_TIME_OFFSET ( 1, 0, .AHEAD. ) ;
#31 = LOCAL_TIME ( 11, 3, 29.00000000000000000, #91 ) ;
#32 = COORDINATED_UNIVERSAL_TIME_OFFSET ( 1, 0, .AHEAD. ) ;
#33 = CARTESIAN_POINT ( 'NONE',  ( 0.0000000000000000000, 0.0000000000000000000, 0.0000000000000000000 ) ) ;
#34 = APPROVAL_ROLE ( '' ) ;
#35 = LOCAL_TIME ( 11, 3, 29.00000000000000000, #30 ) ;
#36 = EDGE_CURVE ( 'NONE', #124, #124, #211, .T. ) ;
#37 = ORIENTED_EDGE ( 'NONE', *, *, #29, .T. ) ;
#38 = CC_DESIGN_SECURITY_CLASSIFICATION ( #115, ( #45 ) ) ;
#39 = EDGE_LOOP ( 'NONE', ( #20 ) ) ;
#40 = DIRECTION ( 'NONE',  ( 1.753988055017776341E-30, -1.000000000000000000, 5.023621451171617702E-16 ) ) ;
#41 = AXIS2_PLACEMENT_3D ( 'NONE', #182, #120, #8 ) ;
#42 = DIRECTION ( 'NONE',  ( -3.491481338843133355E-15, 9.031770143711729009E-17, -1.000000000000000000 ) ) ;
#43 = DIRECTION ( 'NONE',  ( -3.491481338843133355E-15, 9.031770143711729009E-17, -1.000000000000000000 ) ) ;
#44 = DIRECTION ( 'NONE',  ( -3.491481338843133355E-15, 9.031770143711729009E-17, -1.000000000000000000 ) ) ;
#45 = PRODUCT_DEFINITION_FORMATION_WITH_SPECIFIED_SOURCE ( 'ANY', '', #25, .NOT_KNOWN. ) ;
#46 = DIRECTION ( 'NONE',  ( 0.0000000000000000000, 1.000000000000000000, 0.0000000000000000000 ) ) ;
#47 = ADVANCED_FACE ( 'NONE', ( #155 ), #196, .T. ) ;
#48 = COORDINATED_UNIVERSAL_TIME_OFFSET ( 1, 0, .AHEAD. ) ;
#49 = AXIS2_PLACEMENT_3D ( 'NONE', #58, #42, #4 ) ;
#50 = ADVANCED_FACE ( 'NONE', ( #223, #59 ), #108, .T. ) ;
#51 = APPROVAL_DATE_TIME ( #186, #166 ) ;
#52 = PERSON_AND_ORGANIZATION ( #169, #215 ) ;
#53 =( NAMED_UNIT ( * ) SI_UNIT ( $, .STERADIAN. ) SOLID_ANGLE_UNIT ( ) );
#54 = ORIENTED_EDGE ( 'NONE', *, *, #232, .T. ) ;
#55 = FACE_OUTER_BOUND ( 'NONE', #208, .T. ) ;
#56 = CC_DESIGN_PERSON_AND_ORGANIZATION_ASSIGNMENT ( #52, #184, ( #25 ) ) ;
#57 = AXIS2_PLACEMENT_3D ( 'NONE', #157, #181, #179 ) ;
#58 = CARTESIAN_POINT ( 'NONE',  ( 4.577417425562536838E-14, 2.508999999999998121, 13.11024456765166946 ) ) ;
#59 = FACE_BOUND ( 'NONE', #98, .T. ) ;
#60 = ADVANCED_FACE ( 'NONE', ( #189 ), #118, .T. ) ;
#61 = ORIENTED_EDGE ( 'NONE', *, *, #29, .F. ) ;
#62 = DIRECTION ( 'NONE',  ( -1.753988055017775990E-30, 1.000000000000000000, -5.023621451171616716E-16 ) ) ;
#63 = CARTESIAN_POINT ( 'NONE',  ( 4.577417425562537469E-14, 6.586090584016109398E-15, 13.11024456765167123 ) ) ;
#64 = APPROVAL ( #71, 'UNSPECIFIED' ) ;
#65 = AXIS2_PLACEMENT_3D ( 'NONE', #159, #44, #84 ) ;
#66 = CARTESIAN_POINT ( 'NONE',  ( 4.885231259955590439E-14, 1.999999999999990452, 13.99185842870425134 ) ) ;
#67 = FACE_OUTER_BOUND ( 'NONE', #39, .T. ) ;
#68 = APPROVAL_DATE_TIME ( #234, #64 ) ;
#69 = DATE_AND_TIME ( #148, #31 ) ;
#70 = APPROVAL_ROLE ( '' ) ;
#71 = APPROVAL_STATUS ( 'not_yet_approved' ) ;
#72 = DATE_AND_TIME ( #219, #218 ) ;
#73 = CIRCLE ( 'NONE', #183, 2.508999999999991903 ) ;
#74 = CARTESIAN_POINT ( 'NONE',  ( 4.577417425562536838E-14, 6.586090584016108609E-15, 13.11024456765166946 ) ) ;
#75 = EDGE_LOOP ( 'NONE', ( #195 ) ) ;
#76 = ADVANCED_FACE ( 'NONE', ( #15, #55 ), #112, .T. ) ;
#77 = EDGE_LOOP ( 'NONE', ( #61 ) ) ;
#78 = DIRECTION ( 'NONE',  ( -1.765499749737203994E-30, 1.000000000000000000, -4.969440009399484906E-16 ) ) ;
#79 = ADVANCED_FACE ( 'NONE', ( #138, #26 ), #19, .T. ) ;
#80 = CARTESIAN_POINT ( 'NONE',  ( 4.577417425562536838E-14, -1.184087154628752195E-15, 13.11024456765166946 ) ) ;
#81 = FACE_OUTER_BOUND ( 'NONE', #18, .T. ) ;
#82 = DIRECTION ( 'NONE',  ( -3.491481338843133355E-15, 9.031770143711729009E-17, -1.000000000000000000 ) ) ;
#83 = CARTESIAN_POINT ( 'NONE',  ( 2.779219145719134403E-13, 1.999999999999988010, 79.60000000000000853 ) ) ;
#84 = DIRECTION ( 'NONE',  ( 0.0000000000000000000, 1.000000000000000000, 0.0000000000000000000 ) ) ;
#85 = AXIS2_PLACEMENT_3D ( 'NONE', #74, #136, #150 ) ;
#86 = CYLINDRICAL_SURFACE ( 'NONE', #153, 2.508999999999995012 ) ;
#87 = APPROVAL_ROLE ( '' ) ;
#88 = COORDINATED_UNIVERSAL_TIME_OFFSET ( 1, 0, .AHEAD. ) ;
#89 = DIRECTION ( 'NONE',  ( 1.000000000000000000, 0.0000000000000000000, 0.0000000000000000000 ) ) ;
#90 = AXIS2_PLACEMENT_3D ( 'NONE', #103, #82, #46 ) ;
#91 = COORDINATED_UNIVERSAL_TIME_OFFSET ( 1, 0, .AHEAD. ) ;
#92 = APPLICATION_CONTEXT ( 'configuration controlled 3d designs of mechanical parts and assemblies' ) ;
#93 = CC_DESIGN_APPROVAL ( #64, ( #115 ) ) ;
#94 = UNCERTAINTY_MEASURE_WITH_UNIT (LENGTH_MEASURE( 1.000000000000000082E-05 ), #161, 'distance_accuracy_value', 'NONE');
#95 = EDGE_CURVE ( 'NONE', #102, #102, #73, .T. ) ;
#96 = EDGE_LOOP ( 'NONE', ( #131 ) ) ;
#97 = ORIENTED_EDGE ( 'NONE', *, *, #36, .F. ) ;
#98 = EDGE_LOOP ( 'NONE', ( #151 ) ) ;
#99 = AXIS2_PLACEMENT_3D ( 'NONE', #135, #209, #40 ) ;
#100 = PRODUCT_DEFINITION_SHAPE ( 'NONE', 'NONE',  #162 ) ;
#101 = CARTESIAN_POINT ( 'NONE',  ( 1.396592535537257484E-15, 2.009448580468652800E-16, 0.4000000000000011879 ) ) ;
#102 = VERTEX_POINT ( 'NONE', #160 ) ;
#103 = CARTESIAN_POINT ( 'NONE',  ( 2.793185071074506684E-13, -7.225416114969383207E-15, 80.00000000000000000 ) ) ;
#104 = ADVANCED_FACE ( 'NONE', ( #81, #10 ), #86, .T. ) ;
#105 = CARTESIAN_POINT ( 'NONE',  ( 0.0000000000000000000, 0.0000000000000000000, 0.0000000000000000000 ) ) ;
#106 = CARTESIAN_POINT ( 'NONE',  ( 2.779219145719134403E-13, -7.189289034394536528E-15, 79.60000000000000853 ) ) ;
#107 = CC_DESIGN_PERSON_AND_ORGANIZATION_ASSIGNMENT ( #165, #147, ( #45 ) ) ;
#108 = CONICAL_SURFACE ( 'NONE', #99, 2.278059892324148628, 0.5235987755982978165 ) ;
#109 = PERSON_AND_ORGANIZATION ( #169, #215 ) ;
#110 = PERSON_AND_ORGANIZATION ( #169, #215 ) ;
#111 = APPLICATION_PROTOCOL_DEFINITION ( 'international standard', 'config_control_design', 1994, #92 ) ;
#112 = CONICAL_SURFACE ( 'NONE', #180, 1.999999999999995337, 0.7853981633974516097 ) ;
#113 = APPROVAL_STATUS ( 'not_yet_approved' ) ;
#114 = DIRECTION ( 'NONE',  ( -3.491481338843133355E-15, 9.031770143711729009E-17, -1.000000000000000000 ) ) ;
#115 = SECURITY_CLASSIFICATION ( '', '', #235 ) ;
#116 = EDGE_LOOP ( 'NONE', ( #117 ) ) ;
#117 = ORIENTED_EDGE ( 'NONE', *, *, #213, .F. ) ;
#118 = PLANE ( 'NONE',  #85 ) ;
#119 = VERTEX_POINT ( 'NONE', #197 ) ;
#120 = DIRECTION ( 'NONE',  ( -3.491481338843133355E-15, -5.023621451171616716E-16, -1.000000000000000000 ) ) ;
#121 = ADVANCED_FACE ( 'NONE', ( #163, #233 ), #212, .T. ) ;
#122 = DIRECTION ( 'NONE',  ( -2.456347477895246950E-30, 1.000000000000000000, -6.914003491338432389E-16 ) ) ;
#123 =( GEOMETRIC_REPRESENTATION_CONTEXT ( 3 ) GLOBAL_UNCERTAINTY_ASSIGNED_CONTEXT ( ( #94 ) ) GLOBAL_UNIT_ASSIGNED_CONTEXT ( ( #161, #226, #53 ) ) REPRESENTATION_CONTEXT ( 'NONE', 'WORKASPACE' ) );
#124 = VERTEX_POINT ( 'NONE', #217 ) ;
#125 = DIRECTION ( 'NONE',  ( -3.491481338843133355E-15, 9.031770143711729009E-17, -1.000000000000000000 ) ) ;
#126 = DIRECTION ( 'NONE',  ( 0.0000000000000000000, 0.0000000000000000000, 1.000000000000000000 ) ) ;
#127 = APPROVAL_PERSON_ORGANIZATION ( #129, #166, #34 ) ;
#128 = PERSON_AND_ORGANIZATION ( #169, #215 ) ;
#129 = PERSON_AND_ORGANIZATION ( #169, #215 ) ;
#130 = CIRCLE ( 'NONE', #141, 2.508999999999999453 ) ;
#131 = ORIENTED_EDGE ( 'NONE', *, *, #36, .T. ) ;
#132 = CARTESIAN_POINT ( 'NONE',  ( 2.779219145719134403E-13, -7.189289034394536528E-15, 79.60000000000000853 ) ) ;
#133 = LOCAL_TIME ( 11, 3, 29.00000000000000000, #32 ) ;
#134 = DIRECTION ( 'NONE',  ( 0.0000000000000000000, 1.000000000000000000, 0.0000000000000000000 ) ) ;
#135 = CARTESIAN_POINT ( 'NONE',  ( 3.995689839751638061E-30, 5.749087920904006671E-31, 1.144411054213329761E-15 ) ) ;
#136 = DIRECTION ( 'NONE',  ( 3.491481338843133355E-15, 5.023621451171616716E-16, 1.000000000000000000 ) ) ;
#137 = CIRCLE ( 'NONE', #57, 2.278059892324148628 ) ;
#138 = FACE_BOUND ( 'NONE', #175, .T. ) ;
#139 = CARTESIAN_POINT ( 'NONE',  ( 4.577417425562536838E-14, 2.508999999999998121, 13.11024456765166946 ) ) ;
#140 = DIRECTION ( 'NONE',  ( 0.0000000000000000000, 1.000000000000000000, 0.0000000000000000000 ) ) ;
#141 = AXIS2_PLACEMENT_3D ( 'NONE', #80, #114, #134 ) ;
#142 = MANIFOLD_SOLID_BREP ( 'Corps-Déplacer/Copier1[1]', #167 ) ;
#143 = SHAPE_DEFINITION_REPRESENTATION ( #100, #239 ) ;
#144 = AXIS2_PLACEMENT_3D ( 'NONE', #105, #199, #178 ) ;
#145 = PERSON_AND_ORGANIZATION ( #169, #215 ) ;
#146 = EDGE_CURVE ( 'NONE', #119, #119, #137, .T. ) ;
#147 = PERSON_AND_ORGANIZATION_ROLE ( 'design_supplier' ) ;
#148 = CALENDAR_DATE ( 2021, 26, 11 ) ;
#149 = APPROVAL_DATE_TIME ( #72, #238 ) ;
#150 = DIRECTION ( 'NONE',  ( 1.753988055017775990E-30, -1.000000000000000000, 5.023621451171616716E-16 ) ) ;
#151 = ORIENTED_EDGE ( 'NONE', *, *, #146, .F. ) ;
#152 = ORIENTED_EDGE ( 'NONE', *, *, #95, .T. ) ;
#153 = AXIS2_PLACEMENT_3D ( 'NONE', #23, #28, #62 ) ;
#154 = EDGE_CURVE ( 'NONE', #24, #24, #2, .T. ) ;
#155 = FACE_OUTER_BOUND ( 'NONE', #116, .T. ) ;
#156 = ORIENTED_EDGE ( 'NONE', *, *, #213, .T. ) ;
#157 = CARTESIAN_POINT ( 'NONE',  ( 3.995689839751638061E-30, 5.749087920904006671E-31, 1.144411054213329761E-15 ) ) ;
#158 = CIRCLE ( 'NONE', #90, 1.599999999999994982 ) ;
#159 = CARTESIAN_POINT ( 'NONE',  ( 4.885231259955590439E-14, -1.263712492114123682E-15, 13.99185842870425134 ) ) ;
#160 = CARTESIAN_POINT ( 'NONE',  ( 4.577417425562536838E-14, 2.508999999999998121, 13.11024456765166946 ) ) ;
#161 =( LENGTH_UNIT ( ) NAMED_UNIT ( * ) SI_UNIT ( .MILLI., .METRE. ) );
#162 = PRODUCT_DEFINITION ( 'UNKNOWN', '', #45, #190 ) ;
#163 = FACE_OUTER_BOUND ( 'NONE', #75, .T. ) ;
#164 = CALENDAR_DATE ( 2021, 26, 11 ) ;
#165 = PERSON_AND_ORGANIZATION ( #169, #215 ) ;
#166 = APPROVAL ( #113, 'UNSPECIFIED' ) ;
#167 = CLOSED_SHELL ( 'NONE', ( #47, #76, #121, #79, #6 ) ) ;
#168 = MECHANICAL_CONTEXT ( 'NONE', #92, 'mechanical' ) ;
#169 = PERSON ( 'UNSPECIFIED', 'UNSPECIFIED', 'UNSPECIFIED', ('UNSPECIFIED'), ('UNSPECIFIED'), ('UNSPECIFIED') ) ;
#170 = PERSON_AND_ORGANIZATION_ROLE ( 'creator' ) ;
#171 = LOCAL_TIME ( 11, 3, 29.00000000000000000, #48 ) ;
#172 = EDGE_LOOP ( 'NONE', ( #97 ) ) ;
#173 = ORIENTED_EDGE ( 'NONE', *, *, #154, .F. ) ;
#174 = CC_DESIGN_PERSON_AND_ORGANIZATION_ASSIGNMENT ( #128, #220, ( #115 ) ) ;
#175 = EDGE_LOOP ( 'NONE', ( #54 ) ) ;
#176 = AXIS2_PLACEMENT_3D ( 'NONE', #106, #43, #140 ) ;
#177 = DIRECTION ( 'NONE',  ( -3.153425691349006731E-31, -1.000000000000000000, -9.031770143711729009E-17 ) ) ;
#178 = DIRECTION ( 'NONE',  ( 3.153425691349006731E-31, 1.000000000000000000, 9.031770143711729009E-17 ) ) ;
#179 = DIRECTION ( 'NONE',  ( -1.753988055017776341E-30, 1.000000000000000000, -5.023621451171617702E-16 ) ) ;
#180 = AXIS2_PLACEMENT_3D ( 'NONE', #132, #125, #21 ) ;
#181 = DIRECTION ( 'NONE',  ( -3.491481338843133355E-15, -5.023621451171616716E-16, -1.000000000000000000 ) ) ;
#182 = CARTESIAN_POINT ( 'NONE',  ( -1.997844919875819031E-30, 2.278059892324148628, -5.722055271066648807E-16 ) ) ;
#183 = AXIS2_PLACEMENT_3D ( 'NONE', #63, #202, #122 ) ;
#184 = PERSON_AND_ORGANIZATION_ROLE ( 'design_owner' ) ;
#185 = CC_DESIGN_PERSON_AND_ORGANIZATION_ASSIGNMENT ( #187, #13, ( #45 ) ) ;
#186 = DATE_AND_TIME ( #203, #133 ) ;
#187 = PERSON_AND_ORGANIZATION ( #169, #215 ) ;
#188 = DATE_TIME_ROLE ( 'creation_date' ) ;
#189 = FACE_OUTER_BOUND ( 'NONE', #194, .T. ) ;
#190 = DESIGN_CONTEXT ( 'detailed design', #27, 'design' ) ;
#191 = AXIS2_PLACEMENT_3D ( 'NONE', #242, #224, #177 ) ;
#192 = PLANE ( 'NONE',  #49 ) ;
#193 = CC_DESIGN_DATE_AND_TIME_ASSIGNMENT ( #69, #12, ( #115 ) ) ;
#194 = EDGE_LOOP ( 'NONE', ( #243 ) ) ;
#195 = ORIENTED_EDGE ( 'NONE', *, *, #154, .T. ) ;
#196 = PLANE ( 'NONE',  #191 ) ;
#197 = CARTESIAN_POINT ( 'NONE',  ( 0.0000000000000000000, 2.278059892324148628, 0.0000000000000000000 ) ) ;
#198 = CARTESIAN_POINT ( 'NONE',  ( 4.577417425562536838E-14, -1.184087154628752195E-15, 13.11024456765166946 ) ) ;
#199 = DIRECTION ( 'NONE',  ( -3.491481338843133355E-15, 9.031770143711729009E-17, -1.000000000000000000 ) ) ;
#200 = CIRCLE ( 'NONE', #65, 1.999999999999991784 ) ;
#201 = VERTEX_POINT ( 'NONE', #229 ) ;
#202 = DIRECTION ( 'NONE',  ( -3.491481338843133355E-15, -5.023621451171616716E-16, -1.000000000000000000 ) ) ;
#203 = CALENDAR_DATE ( 2021, 26, 11 ) ;
#204 = CC_DESIGN_APPROVAL ( #166, ( #162 ) ) ;
#205 = DATE_AND_TIME ( #240, #35 ) ;
#206 = ADVANCED_FACE ( 'NONE', ( #67 ), #216, .T. ) ;
#207 = EDGE_LOOP ( 'NONE', ( #221 ) ) ;
#208 = EDGE_LOOP ( 'NONE', ( #173 ) ) ;
#209 = DIRECTION ( 'NONE',  ( 3.491481338843133355E-15, 5.023621451171616716E-16, 1.000000000000000000 ) ) ;
#210 = EDGE_LOOP ( 'NONE', ( #37 ) ) ;
#211 = CIRCLE ( 'NONE', #231, 2.508999999999998565 ) ;
#212 = CYLINDRICAL_SURFACE ( 'NONE', #144, 1.999999999999993561 ) ;
#213 = EDGE_CURVE ( 'NONE', #201, #201, #158, .T. ) ;
#214 = DIRECTION ( 'NONE',  ( -3.491481338843133355E-15, 9.031770143711729009E-17, -1.000000000000000000 ) ) ;
#215 = ORGANIZATION ( 'UNSPECIFIED', 'UNSPECIFIED', '' ) ;
#216 = PLANE ( 'NONE',  #41 ) ;
#217 = CARTESIAN_POINT ( 'NONE',  ( 1.396592535537253145E-15, 2.508999999999998565, 0.3999999999999999667 ) ) ;
#218 = LOCAL_TIME ( 11, 3, 29.00000000000000000, #88 ) ;
#219 = CALENDAR_DATE ( 2021, 26, 11 ) ;
#220 = PERSON_AND_ORGANIZATION_ROLE ( 'classification_officer' ) ;
#221 = ORIENTED_EDGE ( 'NONE', *, *, #232, .F. ) ;
#222 = FACE_OUTER_BOUND ( 'NONE', #210, .T. ) ;
#223 = FACE_OUTER_BOUND ( 'NONE', #96, .T. ) ;
#224 = DIRECTION ( 'NONE',  ( 3.491481338843133355E-15, -9.031770143711729009E-17, 1.000000000000000000 ) ) ;
#225 = MANIFOLD_SOLID_BREP ( 'Corps-Déplacer/Copier1[2]', #227 ) ;
#226 =( NAMED_UNIT ( * ) PLANE_ANGLE_UNIT ( ) SI_UNIT ( $, .RADIAN. ) );
#227 = CLOSED_SHELL ( 'NONE', ( #60, #104, #50, #206 ) ) ;
#228 = CC_DESIGN_PERSON_AND_ORGANIZATION_ASSIGNMENT ( #110, #170, ( #162 ) ) ;
#229 = CARTESIAN_POINT ( 'NONE',  ( 2.793185071074506684E-13, 1.599999999999987876, 80.00000000000000000 ) ) ;
#230 = VERTEX_POINT ( 'NONE', #139 ) ;
#231 = AXIS2_PLACEMENT_3D ( 'NONE', #101, #17, #78 ) ;
#232 = EDGE_CURVE ( 'NONE', #5, #5, #200, .T. ) ;
#233 = FACE_OUTER_BOUND ( 'NONE', #207, .T. ) ;
#234 = DATE_AND_TIME ( #164, #171 ) ;
#235 = SECURITY_CLASSIFICATION_LEVEL ( 'unclassified' ) ;
#236 = APPROVAL_PERSON_ORGANIZATION ( #145, #64, #87 ) ;
#237 = APPROVAL_STATUS ( 'not_yet_approved' ) ;
#238 = APPROVAL ( #237, 'UNSPECIFIED' ) ;
#239 = ADVANCED_BREP_SHAPE_REPRESENTATION ( '321405', ( #142, #225, #11 ), #123 ) ;
#240 = CALENDAR_DATE ( 2021, 26, 11 ) ;
#241 = APPROVAL_PERSON_ORGANIZATION ( #109, #238, #70 ) ;
#242 = CARTESIAN_POINT ( 'NONE',  ( 2.793185071074506684E-13, -7.225416114969383207E-15, 80.00000000000000000 ) ) ;
#243 = ORIENTED_EDGE ( 'NONE', *, *, #95, .F. ) ;
ENDSEC;
END-ISO-10303-21;
