ISO-10303-21;
HEADER;
FILE_DESCRIPTION (( 'STEP AP203' ),
    '1' );
FILE_NAME ('321404.step',
    '2021-11-26T10:03:28',
    ( '' ),
    ( '' ),
    'SwSTEP 2.0',
    'SolidWorks 2019',
    '' );
FILE_SCHEMA (( 'CONFIG_CONTROL_DESIGN' ));
ENDSEC;

DATA;
#1 = DIRECTION ( 'NONE',  ( 0.0000000000000000000, 1.000000000000000000, 0.0000000000000000000 ) ) ;
#2 = DIRECTION ( 'NONE',  ( 0.0000000000000000000, 1.000000000000000000, 0.0000000000000000000 ) ) ;
#3 = AXIS2_PLACEMENT_3D ( 'NONE', #176, #4, #34 ) ;
#4 = DIRECTION ( 'NONE',  ( -3.491481338843133355E-15, 9.031770143711729009E-17, -1.000000000000000000 ) ) ;
#5 = DIRECTION ( 'NONE',  ( -1.769025108662398695E-30, 1.000000000000000000, -4.979363012613143724E-16 ) ) ;
#6 = CARTESIAN_POINT ( 'NONE',  ( 4.580441137098813080E-14, -1.184869328867311886E-15, 13.11890482168951166 ) ) ;
#7 = CONICAL_SURFACE ( 'NONE', #182, 2.273059892324148290, 0.5235987755982978165 ) ;
#8 = EDGE_CURVE ( 'NONE', #109, #109, #32, .T. ) ;
#9 = APPROVAL_DATE_TIME ( #75, #115 ) ;
#10 = PERSON_AND_ORGANIZATION ( #113, #100 ) ;
#11 = CARTESIAN_POINT ( 'NONE',  ( 0.0000000000000000000, 2.273059892324148290, 0.0000000000000000000 ) ) ;
#12 = EDGE_LOOP ( 'NONE', ( #76 ) ) ;
#13 = ADVANCED_FACE ( 'NONE', ( #187, #219 ), #17, .T. ) ;
#14 = VERTEX_POINT ( 'NONE', #47 ) ;
#15 = DIRECTION ( 'NONE',  ( 3.153425691349006731E-31, 1.000000000000000000, 9.031770143711729009E-17 ) ) ;
#16 = DATE_TIME_ROLE ( 'classification_date' ) ;
#17 = CYLINDRICAL_SURFACE ( 'NONE', #44, 1.999999999999993561 ) ;
#18 = LOCAL_TIME ( 11, 3, 28.00000000000000000, #198 ) ;
#19 = FACE_OUTER_BOUND ( 'NONE', #146, .T. ) ;
#20 = DIRECTION ( 'NONE',  ( 3.491481338843133355E-15, 5.018688315089664904E-16, 1.000000000000000000 ) ) ;
#21 = DIRECTION ( 'NONE',  ( 1.752265659760565402E-30, -1.000000000000000000, 5.018688315089664904E-16 ) ) ;
#22 = AXIS2_PLACEMENT_3D ( 'NONE', #192, #74, #129 ) ;
#23 = PLANE ( 'NONE',  #94 ) ;
#24 = CC_DESIGN_DATE_AND_TIME_ASSIGNMENT ( #85, #16, ( #154 ) ) ;
#25 = CARTESIAN_POINT ( 'NONE',  ( 4.580441137098813080E-14, 2.503999999999998227, 13.11890482168951166 ) ) ;
#26 = CLOSED_SHELL ( 'NONE', ( #49, #203, #13, #120, #164 ) ) ;
#27 = ORIENTED_EDGE ( 'NONE', *, *, #91, .T. ) ;
#28 = COORDINATED_UNIVERSAL_TIME_OFFSET ( 1, 0, .AHEAD. ) ;
#29 = CALENDAR_DATE ( 2021, 26, 11 ) ;
#30 =( GEOMETRIC_REPRESENTATION_CONTEXT ( 3 ) GLOBAL_UNCERTAINTY_ASSIGNED_CONTEXT ( ( #142 ) ) GLOBAL_UNIT_ASSIGNED_CONTEXT ( ( #42, #78, #116 ) ) REPRESENTATION_CONTEXT ( 'NONE', 'WORKASPACE' ) );
#31 = ORIENTED_EDGE ( 'NONE', *, *, #168, .T. ) ;
#32 = CIRCLE ( 'NONE', #148, 2.503999999999992010 ) ;
#33 = APPROVAL_DATE_TIME ( #143, #152 ) ;
#34 = DIRECTION ( 'NONE',  ( 0.0000000000000000000, 1.000000000000000000, 0.0000000000000000000 ) ) ;
#35 = DIRECTION ( 'NONE',  ( 3.491481338843133355E-15, 5.018688315089664904E-16, 1.000000000000000000 ) ) ;
#36 = DIRECTION ( 'NONE',  ( 3.153425691349006731E-31, 1.000000000000000000, 9.031770143711729009E-17 ) ) ;
#37 = AXIS2_PLACEMENT_3D ( 'NONE', #234, #179, #157 ) ;
#38 = CC_DESIGN_PERSON_AND_ORGANIZATION_ASSIGNMENT ( #216, #119, ( #145 ) ) ;
#39 = PLANE ( 'NONE',  #180 ) ;
#40 = CALENDAR_DATE ( 2021, 26, 11 ) ;
#41 = DIRECTION ( 'NONE',  ( -3.491481338843133355E-15, 9.031770143711729009E-17, -1.000000000000000000 ) ) ;
#42 =( LENGTH_UNIT ( ) NAMED_UNIT ( * ) SI_UNIT ( .MILLI., .METRE. ) );
#43 = EDGE_LOOP ( 'NONE', ( #191 ) ) ;
#44 = AXIS2_PLACEMENT_3D ( 'NONE', #202, #107, #15 ) ;
#45 = PERSON_AND_ORGANIZATION ( #113, #100 ) ;
#46 = APPROVAL_DATE_TIME ( #138, #101 ) ;
#47 = CARTESIAN_POINT ( 'NONE',  ( 4.885231259955590439E-14, 1.999999999999990452, 13.99185842870425134 ) ) ;
#48 = APPROVAL_PERSON_ORGANIZATION ( #67, #115, #79 ) ;
#49 = ADVANCED_FACE ( 'NONE', ( #73 ), #39, .T. ) ;
#50 = CIRCLE ( 'NONE', #132, 1.599999999999994982 ) ;
#51 = PERSON_AND_ORGANIZATION_ROLE ( 'design_supplier' ) ;
#52 = EDGE_CURVE ( 'NONE', #181, #181, #50, .T. ) ;
#53 = COORDINATED_UNIVERSAL_TIME_OFFSET ( 1, 0, .AHEAD. ) ;
#54 = AXIS2_PLACEMENT_3D ( 'NONE', #71, #136, #5 ) ;
#55 = DIRECTION ( 'NONE',  ( -1.752265659760565402E-30, 1.000000000000000000, -5.018688315089664904E-16 ) ) ;
#56 = ADVANCED_FACE ( 'NONE', ( #60 ), #150, .T. ) ;
#57 = DIRECTION ( 'NONE',  ( -3.491481338843133355E-15, -5.018688315089664904E-16, -1.000000000000000000 ) ) ;
#58 = PRODUCT ( '321404', '321404', '', ( #93 ) ) ;
#59 = CARTESIAN_POINT ( 'NONE',  ( 2.793185071074506684E-13, -7.225416114969383207E-15, 80.00000000000000000 ) ) ;
#60 = FACE_OUTER_BOUND ( 'NONE', #99, .T. ) ;
#61 = APPROVAL_PERSON_ORGANIZATION ( #10, #101, #159 ) ;
#62 = APPROVAL_PERSON_ORGANIZATION ( #243, #152, #141 ) ;
#63 = DIRECTION ( 'NONE',  ( 0.0000000000000000000, 1.000000000000000000, 0.0000000000000000000 ) ) ;
#64 = CIRCLE ( 'NONE', #54, 2.503999999999997783 ) ;
#65 = CALENDAR_DATE ( 2021, 26, 11 ) ;
#66 = ORIENTED_EDGE ( 'NONE', *, *, #223, .F. ) ;
#67 = PERSON_AND_ORGANIZATION ( #113, #100 ) ;
#68 = AXIS2_PLACEMENT_3D ( 'NONE', #190, #20, #92 ) ;
#69 = APPROVAL_STATUS ( 'not_yet_approved' ) ;
#70 = EDGE_LOOP ( 'NONE', ( #231 ) ) ;
#71 = CARTESIAN_POINT ( 'NONE',  ( 1.396592535537257484E-15, 2.007475326035872075E-16, 0.4000000000000011879 ) ) ;
#72 = FACE_OUTER_BOUND ( 'NONE', #70, .T. ) ;
#73 = FACE_OUTER_BOUND ( 'NONE', #43, .T. ) ;
#74 = DIRECTION ( 'NONE',  ( -3.491481338843133355E-15, 9.031770143711729009E-17, -1.000000000000000000 ) ) ;
#75 = DATE_AND_TIME ( #40, #188 ) ;
#76 = ORIENTED_EDGE ( 'NONE', *, *, #77, .F. ) ;
#77 = EDGE_CURVE ( 'NONE', #196, #196, #232, .T. ) ;
#78 =( NAMED_UNIT ( * ) PLANE_ANGLE_UNIT ( ) SI_UNIT ( $, .RADIAN. ) );
#79 = APPROVAL_ROLE ( '' ) ;
#80 = APPROVAL_STATUS ( 'not_yet_approved' ) ;
#81 = CC_DESIGN_APPROVAL ( #115, ( #153 ) ) ;
#82 = VERTEX_POINT ( 'NONE', #162 ) ;
#83 = CIRCLE ( 'NONE', #139, 2.503999999999999559 ) ;
#84 = ORIENTED_EDGE ( 'NONE', *, *, #168, .F. ) ;
#85 = DATE_AND_TIME ( #225, #133 ) ;
#86 = DIRECTION ( 'NONE',  ( -3.491481338843133355E-15, 9.031770143711729009E-17, -1.000000000000000000 ) ) ;
#87 = DIRECTION ( 'NONE',  ( -3.491481338843133355E-15, 9.031770143711729009E-17, -1.000000000000000000 ) ) ;
#88 = FACE_OUTER_BOUND ( 'NONE', #240, .T. ) ;
#89 = EDGE_LOOP ( 'NONE', ( #144 ) ) ;
#90 = FACE_BOUND ( 'NONE', #12, .T. ) ;
#91 = EDGE_CURVE ( 'NONE', #178, #178, #106, .T. ) ;
#92 = DIRECTION ( 'NONE',  ( 1.752265659760565402E-30, -1.000000000000000000, 5.018688315089664904E-16 ) ) ;
#93 = MECHANICAL_CONTEXT ( 'NONE', #239, 'mechanical' ) ;
#94 = AXIS2_PLACEMENT_3D ( 'NONE', #206, #86, #36 ) ;
#95 = EDGE_LOOP ( 'NONE', ( #27 ) ) ;
#96 = CC_DESIGN_APPROVAL ( #152, ( #154 ) ) ;
#97 = APPLICATION_PROTOCOL_DEFINITION ( 'international standard', 'config_control_design', 1994, #172 ) ;
#98 = DATE_AND_TIME ( #29, #18 ) ;
#99 = EDGE_LOOP ( 'NONE', ( #158 ) ) ;
#100 = ORGANIZATION ( 'UNSPECIFIED', 'UNSPECIFIED', '' ) ;
#101 = APPROVAL ( #80, 'UNSPECIFIED' ) ;
#102 = EDGE_LOOP ( 'NONE', ( #84 ) ) ;
#103 = EDGE_LOOP ( 'NONE', ( #66 ) ) ;
#104 = CC_DESIGN_PERSON_AND_ORGANIZATION_ASSIGNMENT ( #165, #51, ( #153 ) ) ;
#105 = CALENDAR_DATE ( 2021, 26, 11 ) ;
#106 = CIRCLE ( 'NONE', #22, 1.999999999999995337 ) ;
#107 = DIRECTION ( 'NONE',  ( -3.491481338843133355E-15, 9.031770143711729009E-17, -1.000000000000000000 ) ) ;
#108 = FACE_BOUND ( 'NONE', #237, .T. ) ;
#109 = VERTEX_POINT ( 'NONE', #212 ) ;
#110 = ORIENTED_EDGE ( 'NONE', *, *, #91, .F. ) ;
#111 = ADVANCED_FACE ( 'NONE', ( #19 ), #205, .T. ) ;
#112 = FACE_OUTER_BOUND ( 'NONE', #89, .T. ) ;
#113 = PERSON ( 'UNSPECIFIED', 'UNSPECIFIED', 'UNSPECIFIED', ('UNSPECIFIED'), ('UNSPECIFIED'), ('UNSPECIFIED') ) ;
#114 = CARTESIAN_POINT ( 'NONE',  ( -1.991502395949326717E-30, 2.273059892324148290, -5.703889560553087104E-16 ) ) ;
#115 = APPROVAL ( #69, 'UNSPECIFIED' ) ;
#116 =( NAMED_UNIT ( * ) SI_UNIT ( $, .STERADIAN. ) SOLID_ANGLE_UNIT ( ) );
#117 = PERSON_AND_ORGANIZATION_ROLE ( 'design_owner' ) ;
#118 = PRODUCT_DEFINITION_SHAPE ( 'NONE', 'NONE',  #145 ) ;
#119 = PERSON_AND_ORGANIZATION_ROLE ( 'creator' ) ;
#120 = ADVANCED_FACE ( 'NONE', ( #171, #88 ), #170, .T. ) ;
#121 = VERTEX_POINT ( 'NONE', #25 ) ;
#122 = CC_DESIGN_APPROVAL ( #101, ( #145 ) ) ;
#123 = LOCAL_TIME ( 11, 3, 28.00000000000000000, #53 ) ;
#124 = AXIS2_PLACEMENT_3D ( 'NONE', #189, #87, #2 ) ;
#125 = CC_DESIGN_PERSON_AND_ORGANIZATION_ASSIGNMENT ( #222, #128, ( #153 ) ) ;
#126 = ORIENTED_EDGE ( 'NONE', *, *, #213, .F. ) ;
#127 = DIRECTION ( 'NONE',  ( -2.461252325095516848E-30, 1.000000000000000000, -6.927809408853085349E-16 ) ) ;
#128 = PERSON_AND_ORGANIZATION_ROLE ( 'creator' ) ;
#129 = DIRECTION ( 'NONE',  ( 0.0000000000000000000, 1.000000000000000000, 0.0000000000000000000 ) ) ;
#130 = DIRECTION ( 'NONE',  ( -1.752265659760565402E-30, 1.000000000000000000, -5.018688315089664904E-16 ) ) ;
#131 = DIRECTION ( 'NONE',  ( 3.491481338843133355E-15, -9.031770143711729009E-17, 1.000000000000000000 ) ) ;
#132 = AXIS2_PLACEMENT_3D ( 'NONE', #210, #41, #207 ) ;
#133 = LOCAL_TIME ( 11, 3, 28.00000000000000000, #238 ) ;
#134 = FACE_OUTER_BOUND ( 'NONE', #161, .T. ) ;
#135 = PRODUCT_RELATED_PRODUCT_CATEGORY ( 'detail', '', ( #58 ) ) ;
#136 = DIRECTION ( 'NONE',  ( -3.491481338843133355E-15, -5.018688315089664904E-16, -1.000000000000000000 ) ) ;
#137 = AXIS2_PLACEMENT_3D ( 'NONE', #147, #226, #55 ) ;
#138 = DATE_AND_TIME ( #65, #200 ) ;
#139 = AXIS2_PLACEMENT_3D ( 'NONE', #6, #155, #63 ) ;
#140 = DATE_TIME_ROLE ( 'creation_date' ) ;
#141 = APPROVAL_ROLE ( '' ) ;
#142 = UNCERTAINTY_MEASURE_WITH_UNIT (LENGTH_MEASURE( 1.000000000000000082E-05 ), #42, 'distance_accuracy_value', 'NONE');
#143 = DATE_AND_TIME ( #105, #123 ) ;
#144 = ORIENTED_EDGE ( 'NONE', *, *, #213, .T. ) ;
#145 = PRODUCT_DEFINITION ( 'UNKNOWN', '', #153, #186 ) ;
#146 = EDGE_LOOP ( 'NONE', ( #163 ) ) ;
#147 = CARTESIAN_POINT ( 'NONE',  ( 0.0000000000000000000, 0.0000000000000000000, 0.0000000000000000000 ) ) ;
#148 = AXIS2_PLACEMENT_3D ( 'NONE', #184, #224, #127 ) ;
#149 = CARTESIAN_POINT ( 'NONE',  ( 2.779219145719134403E-13, -7.189289034394536528E-15, 79.60000000000000853 ) ) ;
#150 = PLANE ( 'NONE',  #204 ) ;
#151 = FACE_OUTER_BOUND ( 'NONE', #103, .T. ) ;
#152 = APPROVAL ( #241, 'UNSPECIFIED' ) ;
#153 = PRODUCT_DEFINITION_FORMATION_WITH_SPECIFIED_SOURCE ( 'ANY', '', #58, .NOT_KNOWN. ) ;
#154 = SECURITY_CLASSIFICATION ( '', '', #183 ) ;
#155 = DIRECTION ( 'NONE',  ( -3.491481338843133355E-15, 9.031770143711729009E-17, -1.000000000000000000 ) ) ;
#156 = ORIENTED_EDGE ( 'NONE', *, *, #223, .T. ) ;
#157 = DIRECTION ( 'NONE',  ( 1.000000000000000000, 0.0000000000000000000, 0.0000000000000000000 ) ) ;
#158 = ORIENTED_EDGE ( 'NONE', *, *, #77, .T. ) ;
#159 = APPROVAL_ROLE ( '' ) ;
#160 = AXIS2_PLACEMENT_3D ( 'NONE', #149, #166, #1 ) ;
#161 = EDGE_LOOP ( 'NONE', ( #110 ) ) ;
#162 = CARTESIAN_POINT ( 'NONE',  ( 1.396592535537253145E-15, 2.503999999999997783, 0.3999999999999999667 ) ) ;
#163 = ORIENTED_EDGE ( 'NONE', *, *, #8, .F. ) ;
#164 = ADVANCED_FACE ( 'NONE', ( #112 ), #23, .T. ) ;
#165 = PERSON_AND_ORGANIZATION ( #113, #100 ) ;
#166 = DIRECTION ( 'NONE',  ( -3.491481338843133355E-15, 9.031770143711729009E-17, -1.000000000000000000 ) ) ;
#167 = PERSON_AND_ORGANIZATION ( #113, #100 ) ;
#168 = EDGE_CURVE ( 'NONE', #14, #14, #177, .T. ) ;
#169 = DIRECTION ( 'NONE',  ( -3.153425691349006731E-31, -1.000000000000000000, -9.031770143711729009E-17 ) ) ;
#170 = CONICAL_SURFACE ( 'NONE', #124, 2.503999999999999559, 0.5235987755982929315 ) ;
#171 = FACE_BOUND ( 'NONE', #235, .T. ) ;
#172 = APPLICATION_CONTEXT ( 'configuration controlled 3d designs of mechanical parts and assemblies' ) ;
#173 = ADVANCED_BREP_SHAPE_REPRESENTATION ( '321404', ( #217, #214, #37 ), #30 ) ;
#174 = CARTESIAN_POINT ( 'NONE',  ( 3.983004791898653433E-30, 5.725208777621940651E-31, 1.140777912110617421E-15 ) ) ;
#175 = CC_DESIGN_DATE_AND_TIME_ASSIGNMENT ( #98, #140, ( #145 ) ) ;
#176 = CARTESIAN_POINT ( 'NONE',  ( 4.885231259955590439E-14, -1.263712492114123682E-15, 13.99185842870425134 ) ) ;
#177 = CIRCLE ( 'NONE', #3, 1.999999999999991784 ) ;
#178 = VERTEX_POINT ( 'NONE', #218 ) ;
#179 = DIRECTION ( 'NONE',  ( 0.0000000000000000000, 0.0000000000000000000, 1.000000000000000000 ) ) ;
#180 = AXIS2_PLACEMENT_3D ( 'NONE', #59, #131, #169 ) ;
#181 = VERTEX_POINT ( 'NONE', #199 ) ;
#182 = AXIS2_PLACEMENT_3D ( 'NONE', #174, #35, #21 ) ;
#183 = SECURITY_CLASSIFICATION_LEVEL ( 'unclassified' ) ;
#184 = CARTESIAN_POINT ( 'NONE',  ( 4.580441137098813712E-14, 6.583969433538663254E-15, 13.11890482168951344 ) ) ;
#185 = SHAPE_DEFINITION_REPRESENTATION ( #118, #173 ) ;
#186 = DESIGN_CONTEXT ( 'detailed design', #172, 'design' ) ;
#187 = FACE_OUTER_BOUND ( 'NONE', #95, .T. ) ;
#188 = LOCAL_TIME ( 11, 3, 28.00000000000000000, #28 ) ;
#189 = CARTESIAN_POINT ( 'NONE',  ( 4.580441137098813080E-14, -1.184869328867311886E-15, 13.11890482168951166 ) ) ;
#190 = CARTESIAN_POINT ( 'NONE',  ( 4.580441137098812449E-14, 6.583969433538661676E-15, 13.11890482168950989 ) ) ;
#191 = ORIENTED_EDGE ( 'NONE', *, *, #52, .F. ) ;
#192 = CARTESIAN_POINT ( 'NONE',  ( 2.779219145719134403E-13, -7.189289034394536528E-15, 79.60000000000000853 ) ) ;
#193 = CC_DESIGN_PERSON_AND_ORGANIZATION_ASSIGNMENT ( #45, #117, ( #58 ) ) ;
#194 = APPLICATION_PROTOCOL_DEFINITION ( 'international standard', 'config_control_design', 1994, #239 ) ;
#195 = CONICAL_SURFACE ( 'NONE', #160, 1.999999999999995337, 0.7853981633974516097 ) ;
#196 = VERTEX_POINT ( 'NONE', #11 ) ;
#197 = ORIENTED_EDGE ( 'NONE', *, *, #52, .T. ) ;
#198 = COORDINATED_UNIVERSAL_TIME_OFFSET ( 1, 0, .AHEAD. ) ;
#199 = CARTESIAN_POINT ( 'NONE',  ( 2.793185071074506684E-13, 1.599999999999987876, 80.00000000000000000 ) ) ;
#200 = LOCAL_TIME ( 11, 3, 28.00000000000000000, #233 ) ;
#201 = PERSON_AND_ORGANIZATION_ROLE ( 'classification_officer' ) ;
#202 = CARTESIAN_POINT ( 'NONE',  ( 0.0000000000000000000, 0.0000000000000000000, 0.0000000000000000000 ) ) ;
#203 = ADVANCED_FACE ( 'NONE', ( #108, #134 ), #195, .T. ) ;
#204 = AXIS2_PLACEMENT_3D ( 'NONE', #114, #230, #227 ) ;
#205 = PLANE ( 'NONE',  #68 ) ;
#206 = CARTESIAN_POINT ( 'NONE',  ( 4.580441137098812449E-14, 2.503999999999998227, 13.11890482168950989 ) ) ;
#207 = DIRECTION ( 'NONE',  ( 0.0000000000000000000, 1.000000000000000000, 0.0000000000000000000 ) ) ;
#208 = ADVANCED_FACE ( 'NONE', ( #228, #90 ), #7, .T. ) ;
#209 = CARTESIAN_POINT ( 'NONE',  ( 3.983004791898653433E-30, 5.725208777621940651E-31, 1.140777912110617421E-15 ) ) ;
#210 = CARTESIAN_POINT ( 'NONE',  ( 2.793185071074506684E-13, -7.225416114969383207E-15, 80.00000000000000000 ) ) ;
#211 = EDGE_LOOP ( 'NONE', ( #156 ) ) ;
#212 = CARTESIAN_POINT ( 'NONE',  ( 4.580441137098813080E-14, 2.503999999999998227, 13.11890482168951166 ) ) ;
#213 = EDGE_CURVE ( 'NONE', #121, #121, #83, .T. ) ;
#214 = MANIFOLD_SOLID_BREP ( 'Corps-Déplacer/Copier1[2]', #215 ) ;
#215 = CLOSED_SHELL ( 'NONE', ( #111, #236, #208, #56 ) ) ;
#216 = PERSON_AND_ORGANIZATION ( #113, #100 ) ;
#217 = MANIFOLD_SOLID_BREP ( 'Corps-Déplacer/Copier1[1]', #26 ) ;
#218 = CARTESIAN_POINT ( 'NONE',  ( 2.779219145719134403E-13, 1.999999999999988010, 79.60000000000000853 ) ) ;
#219 = FACE_OUTER_BOUND ( 'NONE', #102, .T. ) ;
#220 = AXIS2_PLACEMENT_3D ( 'NONE', #209, #57, #130 ) ;
#221 = CC_DESIGN_SECURITY_CLASSIFICATION ( #154, ( #153 ) ) ;
#222 = PERSON_AND_ORGANIZATION ( #113, #100 ) ;
#223 = EDGE_CURVE ( 'NONE', #82, #82, #64, .T. ) ;
#224 = DIRECTION ( 'NONE',  ( -3.491481338843133355E-15, -5.018688315089664904E-16, -1.000000000000000000 ) ) ;
#225 = CALENDAR_DATE ( 2021, 26, 11 ) ;
#226 = DIRECTION ( 'NONE',  ( -3.491481338843133355E-15, -5.018688315089664904E-16, -1.000000000000000000 ) ) ;
#227 = DIRECTION ( 'NONE',  ( -1.752265659760565402E-30, 1.000000000000000000, -5.018688315089664904E-16 ) ) ;
#228 = FACE_OUTER_BOUND ( 'NONE', #211, .T. ) ;
#229 = CYLINDRICAL_SURFACE ( 'NONE', #137, 2.503999999999995119 ) ;
#230 = DIRECTION ( 'NONE',  ( -3.491481338843133355E-15, -5.018688315089664904E-16, -1.000000000000000000 ) ) ;
#231 = ORIENTED_EDGE ( 'NONE', *, *, #8, .T. ) ;
#232 = CIRCLE ( 'NONE', #220, 2.273059892324148290 ) ;
#233 = COORDINATED_UNIVERSAL_TIME_OFFSET ( 1, 0, .AHEAD. ) ;
#234 = CARTESIAN_POINT ( 'NONE',  ( 0.0000000000000000000, 0.0000000000000000000, 0.0000000000000000000 ) ) ;
#235 = EDGE_LOOP ( 'NONE', ( #31 ) ) ;
#236 = ADVANCED_FACE ( 'NONE', ( #72, #151 ), #229, .T. ) ;
#237 = EDGE_LOOP ( 'NONE', ( #197 ) ) ;
#238 = COORDINATED_UNIVERSAL_TIME_OFFSET ( 1, 0, .AHEAD. ) ;
#239 = APPLICATION_CONTEXT ( 'configuration controlled 3d designs of mechanical parts and assemblies' ) ;
#240 = EDGE_LOOP ( 'NONE', ( #126 ) ) ;
#241 = APPROVAL_STATUS ( 'not_yet_approved' ) ;
#242 = CC_DESIGN_PERSON_AND_ORGANIZATION_ASSIGNMENT ( #167, #201, ( #154 ) ) ;
#243 = PERSON_AND_ORGANIZATION ( #113, #100 ) ;
ENDSEC;
END-ISO-10303-21;
