ISO-10303-21;
HEADER;
FILE_DESCRIPTION (( 'STEP AP203' ),
    '1' );
FILE_NAME ('321403.step',
    '2021-11-26T10:03:27',
    ( '' ),
    ( '' ),
    'SwSTEP 2.0',
    'SolidWorks 2019',
    '' );
FILE_SCHEMA (( 'CONFIG_CONTROL_DESIGN' ));
ENDSEC;

DATA;
#1 = ADVANCED_FACE ( 'NONE', ( #191, #125 ), #94, .T. ) ;
#2 = DATE_AND_TIME ( #126, #175 ) ;
#3 = DATE_TIME_ROLE ( 'creation_date' ) ;
#4 = ORIENTED_EDGE ( 'NONE', *, *, #34, .F. ) ;
#5 = EDGE_LOOP ( 'NONE', ( #113 ) ) ;
#6 = CLOSED_SHELL ( 'NONE', ( #167, #201, #1, #85 ) ) ;
#7 = APPROVAL_PERSON_ORGANIZATION ( #16, #179, #68 ) ;
#8 = EDGE_LOOP ( 'NONE', ( #79 ) ) ;
#9 = DIRECTION ( 'NONE',  ( -3.491481338843133355E-15, -5.013761687786967616E-16, -1.000000000000000000 ) ) ;
#10 =( GEOMETRIC_REPRESENTATION_CONTEXT ( 3 ) GLOBAL_UNCERTAINTY_ASSIGNED_CONTEXT ( ( #33 ) ) GLOBAL_UNIT_ASSIGNED_CONTEXT ( ( #149, #132, #38 ) ) REPRESENTATION_CONTEXT ( 'NONE', 'WORKASPACE' ) );
#11 = CIRCLE ( 'NONE', #26, 2.498999999999999666 ) ;
#12 = EDGE_CURVE ( 'NONE', #186, #186, #204, .T. ) ;
#13 = DIRECTION ( 'NONE',  ( 0.0000000000000000000, 1.000000000000000000, 0.0000000000000000000 ) ) ;
#14 = FACE_OUTER_BOUND ( 'NONE', #111, .T. ) ;
#15 = DIRECTION ( 'NONE',  ( 0.0000000000000000000, 1.000000000000000000, 0.0000000000000000000 ) ) ;
#16 = PERSON_AND_ORGANIZATION ( #187, #89 ) ;
#17 = DIRECTION ( 'NONE',  ( 0.0000000000000000000, 1.000000000000000000, 0.0000000000000000000 ) ) ;
#18 = APPROVAL_PERSON_ORGANIZATION ( #75, #155, #224 ) ;
#19 = VERTEX_POINT ( 'NONE', #31 ) ;
#20 = AXIS2_PLACEMENT_3D ( 'NONE', #211, #43, #99 ) ;
#21 = CARTESIAN_POINT ( 'NONE',  ( 2.793185071074506684E-13, 1.599999999999987876, 80.00000000000000000 ) ) ;
#22 = APPROVAL_STATUS ( 'not_yet_approved' ) ;
#23 = CARTESIAN_POINT ( 'NONE',  ( 0.0000000000000000000, 2.268059892324148841, 0.0000000000000000000 ) ) ;
#24 = CC_DESIGN_PERSON_AND_ORGANIZATION_ASSIGNMENT ( #50, #159, ( #169 ) ) ;
#25 = CC_DESIGN_PERSON_AND_ORGANIZATION_ASSIGNMENT ( #208, #41, ( #226 ) ) ;
#26 = AXIS2_PLACEMENT_3D ( 'NONE', #214, #114, #15 ) ;
#27 = CC_DESIGN_APPROVAL ( #103, ( #106 ) ) ;
#28 = CARTESIAN_POINT ( 'NONE',  ( 4.583464848635091847E-14, 6.581848283061206065E-15, 13.12756507572735920 ) ) ;
#29 = ADVANCED_FACE ( 'NONE', ( #63 ), #193, .T. ) ;
#30 = CALENDAR_DATE ( 2021, 26, 11 ) ;
#31 = CARTESIAN_POINT ( 'NONE',  ( 4.583464848635091216E-14, 2.498999999999998334, 13.12756507572735742 ) ) ;
#32 = PLANE ( 'NONE',  #109 ) ;
#33 = UNCERTAINTY_MEASURE_WITH_UNIT (LENGTH_MEASURE( 1.000000000000000082E-05 ), #149, 'distance_accuracy_value', 'NONE');
#34 = EDGE_CURVE ( 'NONE', #19, #19, #11, .T. ) ;
#35 = DIRECTION ( 'NONE',  ( -1.750545537031485058E-30, 1.000000000000000000, -5.013761687786967616E-16 ) ) ;
#36 = VERTEX_POINT ( 'NONE', #152 ) ;
#37 = CARTESIAN_POINT ( 'NONE',  ( 3.970342122228149133E-30, 5.701405016367655155E-31, 1.137151179374105268E-15 ) ) ;
#38 =( NAMED_UNIT ( * ) SI_UNIT ( $, .STERADIAN. ) SOLID_ANGLE_UNIT ( ) );
#39 = AXIS2_PLACEMENT_3D ( 'NONE', #115, #176, #13 ) ;
#40 = EDGE_LOOP ( 'NONE', ( #230 ) ) ;
#41 = PERSON_AND_ORGANIZATION_ROLE ( 'creator' ) ;
#42 = MANIFOLD_SOLID_BREP ( 'Corps-Déplacer/Copier1[2]', #6 ) ;
#43 = DIRECTION ( 'NONE',  ( -3.491481338843133355E-15, -5.013761687786967616E-16, -1.000000000000000000 ) ) ;
#44 = EDGE_CURVE ( 'NONE', #86, #86, #138, .T. ) ;
#45 = APPLICATION_CONTEXT ( 'configuration controlled 3d designs of mechanical parts and assemblies' ) ;
#46 = FACE_BOUND ( 'NONE', #61, .T. ) ;
#47 = FACE_OUTER_BOUND ( 'NONE', #40, .T. ) ;
#48 = LOCAL_TIME ( 11, 3, 27.00000000000000000, #54 ) ;
#49 = CIRCLE ( 'NONE', #70, 2.498999999999998778 ) ;
#50 = PERSON_AND_ORGANIZATION ( #187, #89 ) ;
#51 = DIRECTION ( 'NONE',  ( -3.491481338843133355E-15, 9.031770143711729009E-17, -1.000000000000000000 ) ) ;
#52 = FACE_OUTER_BOUND ( 'NONE', #171, .T. ) ;
#53 = PERSON_AND_ORGANIZATION ( #187, #89 ) ;
#54 = COORDINATED_UNIVERSAL_TIME_OFFSET ( 1, 0, .AHEAD. ) ;
#55 = ORIENTED_EDGE ( 'NONE', *, *, #34, .T. ) ;
#56 = CALENDAR_DATE ( 2021, 26, 11 ) ;
#57 = AXIS2_PLACEMENT_3D ( 'NONE', #87, #72, #121 ) ;
#58 = CARTESIAN_POINT ( 'NONE',  ( 1.396592535537253145E-15, 2.498999999999998778, 0.3999999999999999667 ) ) ;
#59 = EDGE_LOOP ( 'NONE', ( #130 ) ) ;
#60 = APPLICATION_PROTOCOL_DEFINITION ( 'international standard', 'config_control_design', 1994, #45 ) ;
#61 = EDGE_LOOP ( 'NONE', ( #74 ) ) ;
#62 = DIRECTION ( 'NONE',  ( -3.491481338843133355E-15, 9.031770143711729009E-17, -1.000000000000000000 ) ) ;
#63 = FACE_OUTER_BOUND ( 'NONE', #168, .T. ) ;
#64 = PERSON_AND_ORGANIZATION ( #187, #89 ) ;
#65 = CLOSED_SHELL ( 'NONE', ( #29, #142, #135, #124, #221 ) ) ;
#66 = CC_DESIGN_PERSON_AND_ORGANIZATION_ASSIGNMENT ( #190, #170, ( #220 ) ) ;
#67 = CARTESIAN_POINT ( 'NONE',  ( 0.0000000000000000000, 0.0000000000000000000, 0.0000000000000000000 ) ) ;
#68 = APPROVAL_ROLE ( '' ) ;
#69 = CARTESIAN_POINT ( 'NONE',  ( 4.885231259955590439E-14, 1.999999999999990452, 13.99185842870425134 ) ) ;
#70 = AXIS2_PLACEMENT_3D ( 'NONE', #177, #192, #212 ) ;
#71 = CARTESIAN_POINT ( 'NONE',  ( 0.0000000000000000000, 0.0000000000000000000, 0.0000000000000000000 ) ) ;
#72 = DIRECTION ( 'NONE',  ( -3.491481338843133355E-15, 9.031770143711729009E-17, -1.000000000000000000 ) ) ;
#73 = APPROVAL_DATE_TIME ( #2, #103 ) ;
#74 = ORIENTED_EDGE ( 'NONE', *, *, #82, .T. ) ;
#75 = PERSON_AND_ORGANIZATION ( #187, #89 ) ;
#76 = VERTEX_POINT ( 'NONE', #23 ) ;
#77 = ORIENTED_EDGE ( 'NONE', *, *, #44, .F. ) ;
#78 = ORIENTED_EDGE ( 'NONE', *, *, #151, .F. ) ;
#79 = ORIENTED_EDGE ( 'NONE', *, *, #197, .F. ) ;
#80 = DIRECTION ( 'NONE',  ( -2.466176799535484286E-30, 1.000000000000000000, -6.941670572136105903E-16 ) ) ;
#81 = CIRCLE ( 'NONE', #195, 1.999999999999991784 ) ;
#82 = EDGE_CURVE ( 'NONE', #238, #238, #81, .T. ) ;
#83 = DATE_TIME_ROLE ( 'classification_date' ) ;
#84 = CARTESIAN_POINT ( 'NONE',  ( 2.793185071074506684E-13, -7.225416114969383207E-15, 80.00000000000000000 ) ) ;
#85 = ADVANCED_FACE ( 'NONE', ( #134 ), #196, .T. ) ;
#86 = VERTEX_POINT ( 'NONE', #158 ) ;
#87 = CARTESIAN_POINT ( 'NONE',  ( 2.779219145719134403E-13, -7.189289034394536528E-15, 79.60000000000000853 ) ) ;
#88 = DESIGN_CONTEXT ( 'detailed design', #45, 'design' ) ;
#89 = ORGANIZATION ( 'UNSPECIFIED', 'UNSPECIFIED', '' ) ;
#90 = CIRCLE ( 'NONE', #98, 2.268059892324148841 ) ;
#91 = LOCAL_TIME ( 11, 3, 27.00000000000000000, #234 ) ;
#92 = COORDINATED_UNIVERSAL_TIME_OFFSET ( 1, 0, .AHEAD. ) ;
#93 = MECHANICAL_CONTEXT ( 'NONE', #236, 'mechanical' ) ;
#94 = CONICAL_SURFACE ( 'NONE', #200, 2.268059892324148841, 0.5235987755982978165 ) ;
#95 = EDGE_LOOP ( 'NONE', ( #188 ) ) ;
#96 = ORIENTED_EDGE ( 'NONE', *, *, #82, .F. ) ;
#97 = EDGE_CURVE ( 'NONE', #108, #108, #49, .T. ) ;
#98 = AXIS2_PLACEMENT_3D ( 'NONE', #163, #104, #241 ) ;
#99 = DIRECTION ( 'NONE',  ( -1.750545537031485058E-30, 1.000000000000000000, -5.013761687786967616E-16 ) ) ;
#100 = DIRECTION ( 'NONE',  ( 3.491481338843133355E-15, 5.013761687786967616E-16, 1.000000000000000000 ) ) ;
#101 = PERSON_AND_ORGANIZATION_ROLE ( 'design_supplier' ) ;
#102 = DATE_AND_TIME ( #30, #194 ) ;
#103 = APPROVAL ( #210, 'UNSPECIFIED' ) ;
#104 = DIRECTION ( 'NONE',  ( -3.491481338843133355E-15, -5.013761687786967616E-16, -1.000000000000000000 ) ) ;
#105 = DIRECTION ( 'NONE',  ( -3.491481338843133355E-15, 9.031770143711729009E-17, -1.000000000000000000 ) ) ;
#106 = PRODUCT_DEFINITION ( 'UNKNOWN', '', #226, #88 ) ;
#107 = CYLINDRICAL_SURFACE ( 'NONE', #207, 1.999999999999993561 ) ;
#108 = VERTEX_POINT ( 'NONE', #58 ) ;
#109 = AXIS2_PLACEMENT_3D ( 'NONE', #120, #205, #219 ) ;
#110 = MANIFOLD_SOLID_BREP ( 'Corps-Déplacer/Copier1[1]', #65 ) ;
#111 = EDGE_LOOP ( 'NONE', ( #4 ) ) ;
#112 = CARTESIAN_POINT ( 'NONE',  ( 0.0000000000000000000, 0.0000000000000000000, 0.0000000000000000000 ) ) ;
#113 = ORIENTED_EDGE ( 'NONE', *, *, #151, .T. ) ;
#114 = DIRECTION ( 'NONE',  ( -3.491481338843133355E-15, 9.031770143711729009E-17, -1.000000000000000000 ) ) ;
#115 = CARTESIAN_POINT ( 'NONE',  ( 4.583464848635091216E-14, -1.185651503105871576E-15, 13.12756507572735742 ) ) ;
#116 = APPROVAL_STATUS ( 'not_yet_approved' ) ;
#117 = DIRECTION ( 'NONE',  ( 3.153425691349006731E-31, 1.000000000000000000, 9.031770143711729009E-17 ) ) ;
#118 = AXIS2_PLACEMENT_3D ( 'NONE', #156, #62, #136 ) ;
#119 = SHAPE_DEFINITION_REPRESENTATION ( #189, #144 ) ;
#120 = CARTESIAN_POINT ( 'NONE',  ( 4.583464848635091847E-14, 6.581848283061205277E-15, 13.12756507572735920 ) ) ;
#121 = DIRECTION ( 'NONE',  ( 0.0000000000000000000, 1.000000000000000000, 0.0000000000000000000 ) ) ;
#122 = DIRECTION ( 'NONE',  ( 3.153425691349006731E-31, 1.000000000000000000, 9.031770143711729009E-17 ) ) ;
#123 = DATE_AND_TIME ( #56, #161 ) ;
#124 = ADVANCED_FACE ( 'NONE', ( #46, #14 ), #174, .T. ) ;
#125 = FACE_BOUND ( 'NONE', #127, .T. ) ;
#126 = CALENDAR_DATE ( 2021, 26, 11 ) ;
#127 = EDGE_LOOP ( 'NONE', ( #78 ) ) ;
#128 = AXIS2_PLACEMENT_3D ( 'NONE', #185, #51, #117 ) ;
#129 = APPROVAL_DATE_TIME ( #225, #155 ) ;
#130 = ORIENTED_EDGE ( 'NONE', *, *, #97, .T. ) ;
#131 = PRODUCT_RELATED_PRODUCT_CATEGORY ( 'detail', '', ( #220 ) ) ;
#132 =( NAMED_UNIT ( * ) PLANE_ANGLE_UNIT ( ) SI_UNIT ( $, .RADIAN. ) );
#133 = ORIENTED_EDGE ( 'NONE', *, *, #12, .T. ) ;
#134 = FACE_OUTER_BOUND ( 'NONE', #5, .T. ) ;
#135 = ADVANCED_FACE ( 'NONE', ( #47, #217 ), #107, .T. ) ;
#136 = DIRECTION ( 'NONE',  ( 0.0000000000000000000, 1.000000000000000000, 0.0000000000000000000 ) ) ;
#137 = CC_DESIGN_SECURITY_CLASSIFICATION ( #169, ( #226 ) ) ;
#138 = CIRCLE ( 'NONE', #148, 2.498999999999991672 ) ;
#139 = AXIS2_PLACEMENT_3D ( 'NONE', #112, #229, #231 ) ;
#140 = DATE_AND_TIME ( #180, #91 ) ;
#141 = PLANE ( 'NONE',  #128 ) ;
#142 = ADVANCED_FACE ( 'NONE', ( #184, #164 ), #240, .T. ) ;
#143 = FACE_OUTER_BOUND ( 'NONE', #166, .T. ) ;
#144 = ADVANCED_BREP_SHAPE_REPRESENTATION ( '321403', ( #110, #42, #139 ), #10 ) ;
#145 = PERSON_AND_ORGANIZATION_ROLE ( 'creator' ) ;
#146 = ORIENTED_EDGE ( 'NONE', *, *, #44, .T. ) ;
#147 = CALENDAR_DATE ( 2021, 26, 11 ) ;
#148 = AXIS2_PLACEMENT_3D ( 'NONE', #28, #9, #80 ) ;
#149 =( LENGTH_UNIT ( ) NAMED_UNIT ( * ) SI_UNIT ( .MILLI., .METRE. ) );
#150 = ORIENTED_EDGE ( 'NONE', *, *, #12, .F. ) ;
#151 = EDGE_CURVE ( 'NONE', #76, #76, #90, .T. ) ;
#152 = CARTESIAN_POINT ( 'NONE',  ( 2.779219145719134403E-13, 1.999999999999988010, 79.60000000000000853 ) ) ;
#153 = EDGE_LOOP ( 'NONE', ( #133 ) ) ;
#154 = EDGE_LOOP ( 'NONE', ( #96 ) ) ;
#155 = APPROVAL ( #22, 'UNSPECIFIED' ) ;
#156 = CARTESIAN_POINT ( 'NONE',  ( 2.793185071074506684E-13, -7.225416114969383207E-15, 80.00000000000000000 ) ) ;
#157 = CARTESIAN_POINT ( 'NONE',  ( 4.885231259955590439E-14, -1.263712492114123682E-15, 13.99185842870425134 ) ) ;
#158 = CARTESIAN_POINT ( 'NONE',  ( 4.583464848635091216E-14, 2.498999999999998334, 13.12756507572735742 ) ) ;
#159 = PERSON_AND_ORGANIZATION_ROLE ( 'classification_officer' ) ;
#160 = FACE_OUTER_BOUND ( 'NONE', #209, .T. ) ;
#161 = LOCAL_TIME ( 11, 3, 27.00000000000000000, #223 ) ;
#162 = CIRCLE ( 'NONE', #57, 1.999999999999995337 ) ;
#163 = CARTESIAN_POINT ( 'NONE',  ( 3.970342122228149133E-30, 5.701405016367655155E-31, 1.137151179374105268E-15 ) ) ;
#164 = FACE_OUTER_BOUND ( 'NONE', #8, .T. ) ;
#165 = APPLICATION_PROTOCOL_DEFINITION ( 'international standard', 'config_control_design', 1994, #236 ) ;
#166 = EDGE_LOOP ( 'NONE', ( #77 ) ) ;
#167 = ADVANCED_FACE ( 'NONE', ( #143 ), #32, .T. ) ;
#168 = EDGE_LOOP ( 'NONE', ( #150 ) ) ;
#169 = SECURITY_CLASSIFICATION ( '', '', #216 ) ;
#170 = PERSON_AND_ORGANIZATION_ROLE ( 'design_owner' ) ;
#171 = EDGE_LOOP ( 'NONE', ( #55 ) ) ;
#172 = CC_DESIGN_DATE_AND_TIME_ASSIGNMENT ( #123, #3, ( #106 ) ) ;
#173 = DIRECTION ( 'NONE',  ( -3.153425691349006731E-31, -1.000000000000000000, -9.031770143711729009E-17 ) ) ;
#174 = CONICAL_SURFACE ( 'NONE', #39, 2.498999999999999666, 0.5235987755982931535 ) ;
#175 = LOCAL_TIME ( 11, 3, 27.00000000000000000, #92 ) ;
#176 = DIRECTION ( 'NONE',  ( -3.491481338843133355E-15, 9.031770143711729009E-17, -1.000000000000000000 ) ) ;
#177 = CARTESIAN_POINT ( 'NONE',  ( 1.396592535537257484E-15, 2.005504675114792963E-16, 0.4000000000000011879 ) ) ;
#178 = DIRECTION ( 'NONE',  ( 1.750545537031485058E-30, -1.000000000000000000, 5.013761687786967616E-16 ) ) ;
#179 = APPROVAL ( #116, 'UNSPECIFIED' ) ;
#180 = CALENDAR_DATE ( 2021, 26, 11 ) ;
#181 = DIRECTION ( 'NONE',  ( -3.491481338843133355E-15, 9.031770143711729009E-17, -1.000000000000000000 ) ) ;
#182 = APPROVAL_DATE_TIME ( #102, #179 ) ;
#183 = DIRECTION ( 'NONE',  ( -3.491481338843133355E-15, 9.031770143711729009E-17, -1.000000000000000000 ) ) ;
#184 = FACE_BOUND ( 'NONE', #153, .T. ) ;
#185 = CARTESIAN_POINT ( 'NONE',  ( 4.583464848635091847E-14, 2.498999999999998334, 13.12756507572735920 ) ) ;
#186 = VERTEX_POINT ( 'NONE', #21 ) ;
#187 = PERSON ( 'UNSPECIFIED', 'UNSPECIFIED', 'UNSPECIFIED', ('UNSPECIFIED'), ('UNSPECIFIED'), ('UNSPECIFIED') ) ;
#188 = ORIENTED_EDGE ( 'NONE', *, *, #97, .F. ) ;
#189 = PRODUCT_DEFINITION_SHAPE ( 'NONE', 'NONE',  #106 ) ;
#190 = PERSON_AND_ORGANIZATION ( #187, #89 ) ;
#191 = FACE_OUTER_BOUND ( 'NONE', #59, .T. ) ;
#192 = DIRECTION ( 'NONE',  ( -3.491481338843133355E-15, -5.013761687786967616E-16, -1.000000000000000000 ) ) ;
#193 = PLANE ( 'NONE',  #227 ) ;
#194 = LOCAL_TIME ( 11, 3, 27.00000000000000000, #198 ) ;
#195 = AXIS2_PLACEMENT_3D ( 'NONE', #157, #181, #232 ) ;
#196 = PLANE ( 'NONE',  #20 ) ;
#197 = EDGE_CURVE ( 'NONE', #36, #36, #162, .T. ) ;
#198 = COORDINATED_UNIVERSAL_TIME_OFFSET ( 1, 0, .AHEAD. ) ;
#199 = CC_DESIGN_APPROVAL ( #155, ( #226 ) ) ;
#200 = AXIS2_PLACEMENT_3D ( 'NONE', #37, #100, #178 ) ;
#201 = ADVANCED_FACE ( 'NONE', ( #160, #202 ), #222, .T. ) ;
#202 = FACE_OUTER_BOUND ( 'NONE', #95, .T. ) ;
#203 = CARTESIAN_POINT ( 'NONE',  ( 2.779219145719134403E-13, -7.189289034394536528E-15, 79.60000000000000853 ) ) ;
#204 = CIRCLE ( 'NONE', #118, 1.599999999999994982 ) ;
#205 = DIRECTION ( 'NONE',  ( 3.491481338843133355E-15, 5.013761687786967616E-16, 1.000000000000000000 ) ) ;
#206 = PERSON_AND_ORGANIZATION ( #187, #89 ) ;
#207 = AXIS2_PLACEMENT_3D ( 'NONE', #67, #183, #122 ) ;
#208 = PERSON_AND_ORGANIZATION ( #187, #89 ) ;
#209 = EDGE_LOOP ( 'NONE', ( #146 ) ) ;
#210 = APPROVAL_STATUS ( 'not_yet_approved' ) ;
#211 = CARTESIAN_POINT ( 'NONE',  ( -1.985171061114074567E-30, 2.268059892324148841, -5.685755896870526338E-16 ) ) ;
#212 = DIRECTION ( 'NONE',  ( -1.772564574666124262E-30, 1.000000000000000000, -4.989325723722811851E-16 ) ) ;
#213 = APPROVAL_PERSON_ORGANIZATION ( #53, #103, #243 ) ;
#214 = CARTESIAN_POINT ( 'NONE',  ( 4.583464848635091216E-14, -1.185651503105871576E-15, 13.12756507572735742 ) ) ;
#215 = DIRECTION ( 'NONE',  ( -3.491481338843133355E-15, -5.013761687786967616E-16, -1.000000000000000000 ) ) ;
#216 = SECURITY_CLASSIFICATION_LEVEL ( 'unclassified' ) ;
#217 = FACE_OUTER_BOUND ( 'NONE', #154, .T. ) ;
#218 = AXIS2_PLACEMENT_3D ( 'NONE', #203, #105, #17 ) ;
#219 = DIRECTION ( 'NONE',  ( 1.750545537031485058E-30, -1.000000000000000000, 5.013761687786967616E-16 ) ) ;
#220 = PRODUCT ( '321403', '321403', '', ( #93 ) ) ;
#221 = ADVANCED_FACE ( 'NONE', ( #52 ), #141, .T. ) ;
#222 = CYLINDRICAL_SURFACE ( 'NONE', #239, 2.498999999999995225 ) ;
#223 = COORDINATED_UNIVERSAL_TIME_OFFSET ( 1, 0, .AHEAD. ) ;
#224 = APPROVAL_ROLE ( '' ) ;
#225 = DATE_AND_TIME ( #147, #48 ) ;
#226 = PRODUCT_DEFINITION_FORMATION_WITH_SPECIFIED_SOURCE ( 'ANY', '', #220, .NOT_KNOWN. ) ;
#227 = AXIS2_PLACEMENT_3D ( 'NONE', #84, #235, #173 ) ;
#228 = CC_DESIGN_APPROVAL ( #179, ( #169 ) ) ;
#229 = DIRECTION ( 'NONE',  ( 0.0000000000000000000, 0.0000000000000000000, 1.000000000000000000 ) ) ;
#230 = ORIENTED_EDGE ( 'NONE', *, *, #197, .T. ) ;
#231 = DIRECTION ( 'NONE',  ( 1.000000000000000000, 0.0000000000000000000, 0.0000000000000000000 ) ) ;
#232 = DIRECTION ( 'NONE',  ( 0.0000000000000000000, 1.000000000000000000, 0.0000000000000000000 ) ) ;
#233 = CC_DESIGN_PERSON_AND_ORGANIZATION_ASSIGNMENT ( #206, #145, ( #106 ) ) ;
#234 = COORDINATED_UNIVERSAL_TIME_OFFSET ( 1, 0, .AHEAD. ) ;
#235 = DIRECTION ( 'NONE',  ( 3.491481338843133355E-15, -9.031770143711729009E-17, 1.000000000000000000 ) ) ;
#236 = APPLICATION_CONTEXT ( 'configuration controlled 3d designs of mechanical parts and assemblies' ) ;
#237 = CC_DESIGN_DATE_AND_TIME_ASSIGNMENT ( #140, #83, ( #169 ) ) ;
#238 = VERTEX_POINT ( 'NONE', #69 ) ;
#239 = AXIS2_PLACEMENT_3D ( 'NONE', #71, #215, #35 ) ;
#240 = CONICAL_SURFACE ( 'NONE', #218, 1.999999999999995337, 0.7853981633974516097 ) ;
#241 = DIRECTION ( 'NONE',  ( -1.750545537031485058E-30, 1.000000000000000000, -5.013761687786967616E-16 ) ) ;
#242 = CC_DESIGN_PERSON_AND_ORGANIZATION_ASSIGNMENT ( #64, #101, ( #226 ) ) ;
#243 = APPROVAL_ROLE ( '' ) ;
ENDSEC;
END-ISO-10303-21;
