ISO-10303-21;
HEADER;
FILE_DESCRIPTION (( 'STEP AP203' ),
    '1' );
FILE_NAME ('321402.step',
    '2021-11-26T10:03:27',
    ( '' ),
    ( '' ),
    'SwSTEP 2.0',
    'SolidWorks 2019',
    '' );
FILE_SCHEMA (( 'CONFIG_CONTROL_DESIGN' ));
ENDSEC;

DATA;
#1 = CARTESIAN_POINT ( 'NONE',  ( 4.586488560171369351E-14, 2.493999999999998440, 13.13622532976520318 ) ) ;
#2 = AXIS2_PLACEMENT_3D ( 'NONE', #52, #124, #240 ) ;
#3 =( NAMED_UNIT ( * ) PLANE_ANGLE_UNIT ( ) SI_UNIT ( $, .RADIAN. ) );
#4 = SECURITY_CLASSIFICATION_LEVEL ( 'unclassified' ) ;
#5 = MECHANICAL_CONTEXT ( 'NONE', #64, 'mechanical' ) ;
#6 = LOCAL_TIME ( 11, 3, 27.00000000000000000, #94 ) ;
#7 = PRODUCT ( '321402', '321402', '', ( #5 ) ) ;
#8 = ORIENTED_EDGE ( 'NONE', *, *, #206, .F. ) ;
#9 = EDGE_LOOP ( 'NONE', ( #238 ) ) ;
#10 = EDGE_LOOP ( 'NONE', ( #121 ) ) ;
#11 = EDGE_LOOP ( 'NONE', ( #45 ) ) ;
#12 = DIRECTION ( 'NONE',  ( -3.491481338843133355E-15, 9.031770143711729009E-17, -1.000000000000000000 ) ) ;
#13 = CARTESIAN_POINT ( 'NONE',  ( 0.0000000000000000000, 2.263059892324148947, 0.0000000000000000000 ) ) ;
#14 = AXIS2_PLACEMENT_3D ( 'NONE', #31, #12, #186 ) ;
#15 = DIRECTION ( 'NONE',  ( -3.153425691349006731E-31, -1.000000000000000000, -9.031770143711729009E-17 ) ) ;
#16 = CARTESIAN_POINT ( 'NONE',  ( 3.957701786480679289E-30, 5.677676393508581690E-31, 1.133530843327383495E-15 ) ) ;
#17 = FACE_OUTER_BOUND ( 'NONE', #236, .T. ) ;
#18 = CIRCLE ( 'NONE', #35, 2.493999999999998884 ) ;
#19 = ADVANCED_BREP_SHAPE_REPRESENTATION ( '321402', ( #214, #135, #182 ), #83 ) ;
#20 = DIRECTION ( 'NONE',  ( 0.0000000000000000000, 1.000000000000000000, 0.0000000000000000000 ) ) ;
#21 = COORDINATED_UNIVERSAL_TIME_OFFSET ( 1, 0, .AHEAD. ) ;
#22 = DATE_AND_TIME ( #190, #179 ) ;
#23 = AXIS2_PLACEMENT_3D ( 'NONE', #127, #36, #15 ) ;
#24 = APPROVAL_ROLE ( '' ) ;
#25 = APPROVAL_DATE_TIME ( #137, #43 ) ;
#26 = PERSON_AND_ORGANIZATION_ROLE ( 'design_owner' ) ;
#27 = CIRCLE ( 'NONE', #153, 2.493999999999999773 ) ;
#28 = PRODUCT_DEFINITION ( 'UNKNOWN', '', #170, #141 ) ;
#29 = AXIS2_PLACEMENT_3D ( 'NONE', #169, #181, #38 ) ;
#30 = EDGE_LOOP ( 'NONE', ( #118 ) ) ;
#31 = CARTESIAN_POINT ( 'NONE',  ( 4.586488560171369351E-14, 2.493999999999998440, 13.13622532976520318 ) ) ;
#32 = APPROVAL ( #116, 'UNSPECIFIED' ) ;
#33 = CARTESIAN_POINT ( 'NONE',  ( 2.779219145719134403E-13, -7.189289034394536528E-15, 79.60000000000000853 ) ) ;
#34 = DIRECTION ( 'NONE',  ( -3.491481338843133355E-15, -5.008841556390511975E-16, -1.000000000000000000 ) ) ;
#35 = AXIS2_PLACEMENT_3D ( 'NONE', #57, #86, #72 ) ;
#36 = DIRECTION ( 'NONE',  ( 3.491481338843133355E-15, -9.031770143711729009E-17, 1.000000000000000000 ) ) ;
#37 = PLANE ( 'NONE',  #174 ) ;
#38 = DIRECTION ( 'NONE',  ( -1.748827682335947205E-30, 1.000000000000000000, -5.008841556390511975E-16 ) ) ;
#39 = CC_DESIGN_APPROVAL ( #32, ( #170 ) ) ;
#40 = CARTESIAN_POINT ( 'NONE',  ( 0.0000000000000000000, 0.0000000000000000000, 0.0000000000000000000 ) ) ;
#41 = PERSON_AND_ORGANIZATION_ROLE ( 'creator' ) ;
#42 = CONICAL_SURFACE ( 'NONE', #221, 1.999999999999995337, 0.7853981633974516097 ) ;
#43 = APPROVAL ( #155, 'UNSPECIFIED' ) ;
#44 = PERSON ( 'UNSPECIFIED', 'UNSPECIFIED', 'UNSPECIFIED', ('UNSPECIFIED'), ('UNSPECIFIED'), ('UNSPECIFIED') ) ;
#45 = ORIENTED_EDGE ( 'NONE', *, *, #218, .T. ) ;
#46 = ADVANCED_FACE ( 'NONE', ( #195 ), #168, .T. ) ;
#47 = ORIENTED_EDGE ( 'NONE', *, *, #120, .F. ) ;
#48 = APPROVAL_PERSON_ORGANIZATION ( #233, #32, #24 ) ;
#49 = DIRECTION ( 'NONE',  ( 0.0000000000000000000, 1.000000000000000000, 0.0000000000000000000 ) ) ;
#50 = CARTESIAN_POINT ( 'NONE',  ( 4.586488560171369982E-14, 6.579727132583760710E-15, 13.13622532976520496 ) ) ;
#51 = DIRECTION ( 'NONE',  ( 0.0000000000000000000, 1.000000000000000000, 0.0000000000000000000 ) ) ;
#52 = CARTESIAN_POINT ( 'NONE',  ( 0.0000000000000000000, 0.0000000000000000000, 0.0000000000000000000 ) ) ;
#53 = CARTESIAN_POINT ( 'NONE',  ( -1.978850893240339644E-30, 2.263059892324148947, -5.667654216636917476E-16 ) ) ;
#54 = LOCAL_TIME ( 11, 3, 27.00000000000000000, #21 ) ;
#55 = VERTEX_POINT ( 'NONE', #129 ) ;
#56 = CC_DESIGN_PERSON_AND_ORGANIZATION_ASSIGNMENT ( #111, #41, ( #170 ) ) ;
#57 = CARTESIAN_POINT ( 'NONE',  ( 1.396592535537257484E-15, 2.003536622556210953E-16, 0.4000000000000011879 ) ) ;
#58 = VERTEX_POINT ( 'NONE', #1 ) ;
#59 = CIRCLE ( 'NONE', #194, 1.599999999999994982 ) ;
#60 = DATE_AND_TIME ( #232, #6 ) ;
#61 = APPLICATION_PROTOCOL_DEFINITION ( 'international standard', 'config_control_design', 1994, #177 ) ;
#62 = CALENDAR_DATE ( 2021, 26, 11 ) ;
#63 = CARTESIAN_POINT ( 'NONE',  ( 0.0000000000000000000, 0.0000000000000000000, 0.0000000000000000000 ) ) ;
#64 = APPLICATION_CONTEXT ( 'configuration controlled 3d designs of mechanical parts and assemblies' ) ;
#65 = ORIENTED_EDGE ( 'NONE', *, *, #95, .F. ) ;
#66 = EDGE_LOOP ( 'NONE', ( #79 ) ) ;
#67 = CARTESIAN_POINT ( 'NONE',  ( 2.779219145719134403E-13, -7.189289034394536528E-15, 79.60000000000000853 ) ) ;
#68 = FACE_OUTER_BOUND ( 'NONE', #217, .T. ) ;
#69 = FACE_OUTER_BOUND ( 'NONE', #10, .T. ) ;
#70 = CC_DESIGN_PERSON_AND_ORGANIZATION_ASSIGNMENT ( #112, #26, ( #7 ) ) ;
#71 = CYLINDRICAL_SURFACE ( 'NONE', #158, 2.493999999999995332 ) ;
#72 = DIRECTION ( 'NONE',  ( -1.776118232594484577E-30, 1.000000000000000000, -4.999328381549040426E-16 ) ) ;
#73 = FACE_OUTER_BOUND ( 'NONE', #123, .T. ) ;
#74 = ADVANCED_FACE ( 'NONE', ( #183, #166 ), #212, .T. ) ;
#75 = PERSON_AND_ORGANIZATION ( #44, #103 ) ;
#76 = COORDINATED_UNIVERSAL_TIME_OFFSET ( 1, 0, .AHEAD. ) ;
#77 = APPROVAL_ROLE ( '' ) ;
#78 = CALENDAR_DATE ( 2021, 26, 11 ) ;
#79 = ORIENTED_EDGE ( 'NONE', *, *, #218, .F. ) ;
#80 = ORIENTED_EDGE ( 'NONE', *, *, #113, .T. ) ;
#81 = EDGE_LOOP ( 'NONE', ( #65 ) ) ;
#82 = FACE_BOUND ( 'NONE', #11, .T. ) ;
#83 =( GEOMETRIC_REPRESENTATION_CONTEXT ( 3 ) GLOBAL_UNCERTAINTY_ASSIGNED_CONTEXT ( ( #145 ) ) GLOBAL_UNIT_ASSIGNED_CONTEXT ( ( #88, #3, #131 ) ) REPRESENTATION_CONTEXT ( 'NONE', 'WORKASPACE' ) );
#84 = ADVANCED_FACE ( 'NONE', ( #146, #143 ), #99, .T. ) ;
#85 = DIRECTION ( 'NONE',  ( 0.0000000000000000000, 1.000000000000000000, 0.0000000000000000000 ) ) ;
#86 = DIRECTION ( 'NONE',  ( -3.491481338843133355E-15, -5.008841556390511975E-16, -1.000000000000000000 ) ) ;
#87 = FACE_OUTER_BOUND ( 'NONE', #164, .T. ) ;
#88 =( LENGTH_UNIT ( ) NAMED_UNIT ( * ) SI_UNIT ( .MILLI., .METRE. ) );
#89 = CARTESIAN_POINT ( 'NONE',  ( 4.885231259955590439E-14, 1.999999999999990452, 13.99185842870425134 ) ) ;
#90 = COORDINATED_UNIVERSAL_TIME_OFFSET ( 1, 0, .AHEAD. ) ;
#91 = PERSON_AND_ORGANIZATION_ROLE ( 'design_supplier' ) ;
#92 = CIRCLE ( 'NONE', #208, 1.999999999999995337 ) ;
#93 = AXIS2_PLACEMENT_3D ( 'NONE', #203, #242, #201 ) ;
#94 = COORDINATED_UNIVERSAL_TIME_OFFSET ( 1, 0, .AHEAD. ) ;
#95 = EDGE_CURVE ( 'NONE', #126, #126, #165, .T. ) ;
#96 = CONICAL_SURFACE ( 'NONE', #132, 2.263059892324148947, 0.5235987755982978165 ) ;
#97 = ORIENTED_EDGE ( 'NONE', *, *, #113, .F. ) ;
#98 = EDGE_LOOP ( 'NONE', ( #161 ) ) ;
#99 = CYLINDRICAL_SURFACE ( 'NONE', #2, 1.999999999999993561 ) ;
#100 = ADVANCED_FACE ( 'NONE', ( #69 ), #105, .T. ) ;
#101 = DIRECTION ( 'NONE',  ( -3.491481338843133355E-15, 9.031770143711729009E-17, -1.000000000000000000 ) ) ;
#102 = DIRECTION ( 'NONE',  ( -1.748827682335946855E-30, 1.000000000000000000, -5.008841556390511975E-16 ) ) ;
#103 = ORGANIZATION ( 'UNSPECIFIED', 'UNSPECIFIED', '' ) ;
#104 = SECURITY_CLASSIFICATION ( '', '', #4 ) ;
#105 = PLANE ( 'NONE',  #14 ) ;
#106 = CARTESIAN_POINT ( 'NONE',  ( 2.779219145719134403E-13, 1.999999999999988010, 79.60000000000000853 ) ) ;
#107 = ADVANCED_FACE ( 'NONE', ( #82, #17 ), #42, .T. ) ;
#108 = CARTESIAN_POINT ( 'NONE',  ( 2.793185071074506684E-13, 1.599999999999987876, 80.00000000000000000 ) ) ;
#109 = VERTEX_POINT ( 'NONE', #106 ) ;
#110 = CIRCLE ( 'NONE', #29, 2.263059892324148947 ) ;
#111 = PERSON_AND_ORGANIZATION ( #44, #103 ) ;
#112 = PERSON_AND_ORGANIZATION ( #44, #103 ) ;
#113 = EDGE_CURVE ( 'NONE', #58, #58, #234, .T. ) ;
#114 = APPROVAL_DATE_TIME ( #230, #231 ) ;
#115 = CC_DESIGN_APPROVAL ( #231, ( #28 ) ) ;
#116 = APPROVAL_STATUS ( 'not_yet_approved' ) ;
#117 = APPROVAL_DATE_TIME ( #157, #32 ) ;
#118 = ORIENTED_EDGE ( 'NONE', *, *, #206, .T. ) ;
#119 = AXIS2_PLACEMENT_3D ( 'NONE', #53, #34, #102 ) ;
#120 = EDGE_CURVE ( 'NONE', #109, #109, #92, .T. ) ;
#121 = ORIENTED_EDGE ( 'NONE', *, *, #148, .T. ) ;
#122 = AXIS2_PLACEMENT_3D ( 'NONE', #50, #125, #202 ) ;
#123 = EDGE_LOOP ( 'NONE', ( #180 ) ) ;
#124 = DIRECTION ( 'NONE',  ( -3.491481338843133355E-15, 9.031770143711729009E-17, -1.000000000000000000 ) ) ;
#125 = DIRECTION ( 'NONE',  ( -3.491481338843133355E-15, -5.008841556390511975E-16, -1.000000000000000000 ) ) ;
#126 = VERTEX_POINT ( 'NONE', #89 ) ;
#127 = CARTESIAN_POINT ( 'NONE',  ( 2.793185071074506684E-13, -7.225416114969383207E-15, 80.00000000000000000 ) ) ;
#128 = DIRECTION ( 'NONE',  ( 0.0000000000000000000, 1.000000000000000000, 0.0000000000000000000 ) ) ;
#129 = CARTESIAN_POINT ( 'NONE',  ( 1.396592535537253145E-15, 2.493999999999998884, 0.3999999999999999667 ) ) ;
#130 = CARTESIAN_POINT ( 'NONE',  ( 4.586488560171369351E-14, 6.579727132583760710E-15, 13.13622532976520318 ) ) ;
#131 =( NAMED_UNIT ( * ) SI_UNIT ( $, .STERADIAN. ) SOLID_ANGLE_UNIT ( ) );
#132 = AXIS2_PLACEMENT_3D ( 'NONE', #16, #229, #204 ) ;
#133 = APPROVAL_ROLE ( '' ) ;
#134 = ADVANCED_FACE ( 'NONE', ( #73, #147 ), #96, .T. ) ;
#135 = MANIFOLD_SOLID_BREP ( 'Corps-Déplacer/Copier1[2]', #149 ) ;
#136 = CC_DESIGN_PERSON_AND_ORGANIZATION_ASSIGNMENT ( #192, #91, ( #170 ) ) ;
#137 = DATE_AND_TIME ( #62, #199 ) ;
#138 = CLOSED_SHELL ( 'NONE', ( #46, #107, #84, #74, #100 ) ) ;
#139 = ADVANCED_FACE ( 'NONE', ( #151 ), #241, .T. ) ;
#140 = APPROVAL_PERSON_ORGANIZATION ( #191, #231, #77 ) ;
#141 = DESIGN_CONTEXT ( 'detailed design', #177, 'design' ) ;
#142 = LOCAL_TIME ( 11, 3, 27.00000000000000000, #178 ) ;
#143 = FACE_OUTER_BOUND ( 'NONE', #81, .T. ) ;
#144 = CARTESIAN_POINT ( 'NONE',  ( 2.793185071074506684E-13, -7.225416114969383207E-15, 80.00000000000000000 ) ) ;
#145 = UNCERTAINTY_MEASURE_WITH_UNIT (LENGTH_MEASURE( 1.000000000000000082E-05 ), #88, 'distance_accuracy_value', 'NONE');
#146 = FACE_OUTER_BOUND ( 'NONE', #163, .T. ) ;
#147 = FACE_BOUND ( 'NONE', #193, .T. ) ;
#148 = EDGE_CURVE ( 'NONE', #187, #187, #27, .T. ) ;
#149 = CLOSED_SHELL ( 'NONE', ( #162, #196, #134, #139 ) ) ;
#150 = DIRECTION ( 'NONE',  ( 1.748827682335946855E-30, -1.000000000000000000, 5.008841556390511975E-16 ) ) ;
#151 = FACE_OUTER_BOUND ( 'NONE', #30, .T. ) ;
#152 = DATE_TIME_ROLE ( 'creation_date' ) ;
#153 = AXIS2_PLACEMENT_3D ( 'NONE', #224, #184, #20 ) ;
#154 = PERSON_AND_ORGANIZATION ( #44, #103 ) ;
#155 = APPROVAL_STATUS ( 'not_yet_approved' ) ;
#156 = EDGE_CURVE ( 'NONE', #55, #55, #18, .T. ) ;
#157 = DATE_AND_TIME ( #78, #142 ) ;
#158 = AXIS2_PLACEMENT_3D ( 'NONE', #40, #207, #227 ) ;
#159 = PRODUCT_RELATED_PRODUCT_CATEGORY ( 'detail', '', ( #7 ) ) ;
#160 = PERSON_AND_ORGANIZATION_ROLE ( 'classification_officer' ) ;
#161 = ORIENTED_EDGE ( 'NONE', *, *, #95, .T. ) ;
#162 = ADVANCED_FACE ( 'NONE', ( #167 ), #37, .T. ) ;
#163 = EDGE_LOOP ( 'NONE', ( #220 ) ) ;
#164 = EDGE_LOOP ( 'NONE', ( #80 ) ) ;
#165 = CIRCLE ( 'NONE', #93, 1.999999999999991784 ) ;
#166 = FACE_OUTER_BOUND ( 'NONE', #9, .T. ) ;
#167 = FACE_OUTER_BOUND ( 'NONE', #197, .T. ) ;
#168 = PLANE ( 'NONE',  #23 ) ;
#169 = CARTESIAN_POINT ( 'NONE',  ( 3.957701786480679289E-30, 5.677676393508581690E-31, 1.133530843327383495E-15 ) ) ;
#170 = PRODUCT_DEFINITION_FORMATION_WITH_SPECIFIED_SOURCE ( 'ANY', '', #7, .NOT_KNOWN. ) ;
#171 = DIRECTION ( 'NONE',  ( -3.491481338843133355E-15, 9.031770143711729009E-17, -1.000000000000000000 ) ) ;
#172 = CALENDAR_DATE ( 2021, 26, 11 ) ;
#173 = DATE_TIME_ROLE ( 'classification_date' ) ;
#174 = AXIS2_PLACEMENT_3D ( 'NONE', #130, #243, #150 ) ;
#175 = DIRECTION ( 'NONE',  ( 0.0000000000000000000, 0.0000000000000000000, 1.000000000000000000 ) ) ;
#176 = SHAPE_DEFINITION_REPRESENTATION ( #216, #19 ) ;
#177 = APPLICATION_CONTEXT ( 'configuration controlled 3d designs of mechanical parts and assemblies' ) ;
#178 = COORDINATED_UNIVERSAL_TIME_OFFSET ( 1, 0, .AHEAD. ) ;
#179 = LOCAL_TIME ( 11, 3, 27.00000000000000000, #90 ) ;
#180 = ORIENTED_EDGE ( 'NONE', *, *, #156, .T. ) ;
#181 = DIRECTION ( 'NONE',  ( -3.491481338843133355E-15, -5.008841556390511975E-16, -1.000000000000000000 ) ) ;
#182 = AXIS2_PLACEMENT_3D ( 'NONE', #63, #175, #211 ) ;
#183 = FACE_BOUND ( 'NONE', #98, .T. ) ;
#184 = DIRECTION ( 'NONE',  ( -3.491481338843133355E-15, 9.031770143711729009E-17, -1.000000000000000000 ) ) ;
#185 = CC_DESIGN_PERSON_AND_ORGANIZATION_ASSIGNMENT ( #215, #213, ( #28 ) ) ;
#186 = DIRECTION ( 'NONE',  ( 3.153425691349006731E-31, 1.000000000000000000, 9.031770143711729009E-17 ) ) ;
#187 = VERTEX_POINT ( 'NONE', #226 ) ;
#188 = VERTEX_POINT ( 'NONE', #13 ) ;
#189 = CC_DESIGN_APPROVAL ( #43, ( #104 ) ) ;
#190 = CALENDAR_DATE ( 2021, 26, 11 ) ;
#191 = PERSON_AND_ORGANIZATION ( #44, #103 ) ;
#192 = PERSON_AND_ORGANIZATION ( #44, #103 ) ;
#193 = EDGE_LOOP ( 'NONE', ( #8 ) ) ;
#194 = AXIS2_PLACEMENT_3D ( 'NONE', #144, #171, #51 ) ;
#195 = FACE_OUTER_BOUND ( 'NONE', #66, .T. ) ;
#196 = ADVANCED_FACE ( 'NONE', ( #87, #68 ), #71, .T. ) ;
#197 = EDGE_LOOP ( 'NONE', ( #97 ) ) ;
#198 = AXIS2_PLACEMENT_3D ( 'NONE', #223, #225, #85 ) ;
#199 = LOCAL_TIME ( 11, 3, 27.00000000000000000, #76 ) ;
#200 = CC_DESIGN_DATE_AND_TIME_ASSIGNMENT ( #22, #152, ( #28 ) ) ;
#201 = DIRECTION ( 'NONE',  ( 0.0000000000000000000, 1.000000000000000000, 0.0000000000000000000 ) ) ;
#202 = DIRECTION ( 'NONE',  ( -2.471121019261898515E-30, 1.000000000000000000, -6.955587313459554013E-16 ) ) ;
#203 = CARTESIAN_POINT ( 'NONE',  ( 4.885231259955590439E-14, -1.263712492114123682E-15, 13.99185842870425134 ) ) ;
#204 = DIRECTION ( 'NONE',  ( 1.748827682335947205E-30, -1.000000000000000000, 5.008841556390511975E-16 ) ) ;
#205 = VERTEX_POINT ( 'NONE', #108 ) ;
#206 = EDGE_CURVE ( 'NONE', #188, #188, #110, .T. ) ;
#207 = DIRECTION ( 'NONE',  ( -3.491481338843133355E-15, -5.008841556390511975E-16, -1.000000000000000000 ) ) ;
#208 = AXIS2_PLACEMENT_3D ( 'NONE', #33, #101, #128 ) ;
#209 = APPROVAL_PERSON_ORGANIZATION ( #154, #43, #133 ) ;
#210 = APPROVAL_STATUS ( 'not_yet_approved' ) ;
#211 = DIRECTION ( 'NONE',  ( 1.000000000000000000, 0.0000000000000000000, 0.0000000000000000000 ) ) ;
#212 = CONICAL_SURFACE ( 'NONE', #198, 2.493999999999999773, 0.5235987755982935976 ) ;
#213 = PERSON_AND_ORGANIZATION_ROLE ( 'creator' ) ;
#214 = MANIFOLD_SOLID_BREP ( 'Corps-Déplacer/Copier1[1]', #138 ) ;
#215 = PERSON_AND_ORGANIZATION ( #44, #103 ) ;
#216 = PRODUCT_DEFINITION_SHAPE ( 'NONE', 'NONE',  #28 ) ;
#217 = EDGE_LOOP ( 'NONE', ( #239 ) ) ;
#218 = EDGE_CURVE ( 'NONE', #205, #205, #59, .T. ) ;
#219 = CC_DESIGN_PERSON_AND_ORGANIZATION_ASSIGNMENT ( #75, #160, ( #104 ) ) ;
#220 = ORIENTED_EDGE ( 'NONE', *, *, #120, .T. ) ;
#221 = AXIS2_PLACEMENT_3D ( 'NONE', #67, #222, #49 ) ;
#222 = DIRECTION ( 'NONE',  ( -3.491481338843133355E-15, 9.031770143711729009E-17, -1.000000000000000000 ) ) ;
#223 = CARTESIAN_POINT ( 'NONE',  ( 4.586488560171369351E-14, -1.186433677344431069E-15, 13.13622532976520318 ) ) ;
#224 = CARTESIAN_POINT ( 'NONE',  ( 4.586488560171369351E-14, -1.186433677344431069E-15, 13.13622532976520318 ) ) ;
#225 = DIRECTION ( 'NONE',  ( -3.491481338843133355E-15, 9.031770143711729009E-17, -1.000000000000000000 ) ) ;
#226 = CARTESIAN_POINT ( 'NONE',  ( 4.586488560171369351E-14, 2.493999999999998440, 13.13622532976520318 ) ) ;
#227 = DIRECTION ( 'NONE',  ( -1.748827682335947205E-30, 1.000000000000000000, -5.008841556390511975E-16 ) ) ;
#228 = CC_DESIGN_DATE_AND_TIME_ASSIGNMENT ( #60, #173, ( #104 ) ) ;
#229 = DIRECTION ( 'NONE',  ( 3.491481338843133355E-15, 5.008841556390511975E-16, 1.000000000000000000 ) ) ;
#230 = DATE_AND_TIME ( #172, #54 ) ;
#231 = APPROVAL ( #210, 'UNSPECIFIED' ) ;
#232 = CALENDAR_DATE ( 2021, 26, 11 ) ;
#233 = PERSON_AND_ORGANIZATION ( #44, #103 ) ;
#234 = CIRCLE ( 'NONE', #122, 2.493999999999991779 ) ;
#235 = APPLICATION_PROTOCOL_DEFINITION ( 'international standard', 'config_control_design', 1994, #64 ) ;
#236 = EDGE_LOOP ( 'NONE', ( #47 ) ) ;
#237 = CC_DESIGN_SECURITY_CLASSIFICATION ( #104, ( #170 ) ) ;
#238 = ORIENTED_EDGE ( 'NONE', *, *, #148, .F. ) ;
#239 = ORIENTED_EDGE ( 'NONE', *, *, #156, .F. ) ;
#240 = DIRECTION ( 'NONE',  ( 3.153425691349006731E-31, 1.000000000000000000, 9.031770143711729009E-17 ) ) ;
#241 = PLANE ( 'NONE',  #119 ) ;
#242 = DIRECTION ( 'NONE',  ( -3.491481338843133355E-15, 9.031770143711729009E-17, -1.000000000000000000 ) ) ;
#243 = DIRECTION ( 'NONE',  ( 3.491481338843133355E-15, 5.008841556390511975E-16, 1.000000000000000000 ) ) ;
ENDSEC;
END-ISO-10303-21;
