ISO-10303-21;
HEADER;
FILE_DESCRIPTION (( 'STEP AP203' ),
    '1' );
FILE_NAME ('321401.step',
    '2021-11-26T10:03:26',
    ( '' ),
    ( '' ),
    'SwSTEP 2.0',
    'SolidWorks 2019',
    '' );
FILE_SCHEMA (( 'CONFIG_CONTROL_DESIGN' ));
ENDSEC;

DATA;
#1 = VERTEX_POINT ( 'NONE', #69 ) ;
#2 = ORIENTED_EDGE ( 'NONE', *, *, #118, .T. ) ;
#3 = AXIS2_PLACEMENT_3D ( 'NONE', #207, #208, #211 ) ;
#4 = VERTEX_POINT ( 'NONE', #123 ) ;
#5 =( NAMED_UNIT ( * ) PLANE_ANGLE_UNIT ( ) SI_UNIT ( $, .RADIAN. ) );
#6 = CONICAL_SURFACE ( 'NONE', #224, 2.258059892324148610, 0.5235987755982978165 ) ;
#7 = CC_DESIGN_PERSON_AND_ORGANIZATION_ASSIGNMENT ( #57, #226, ( #36 ) ) ;
#8 = PERSON_AND_ORGANIZATION_ROLE ( 'creator' ) ;
#9 = FACE_BOUND ( 'NONE', #101, .T. ) ;
#10 = ADVANCED_FACE ( 'NONE', ( #25 ), #168, .T. ) ;
#11 = DIRECTION ( 'NONE',  ( -2.476085103270058576E-30, 1.000000000000000000, -6.969559967765419943E-16 ) ) ;
#12 = CALENDAR_DATE ( 2021, 26, 11 ) ;
#13 = CYLINDRICAL_SURFACE ( 'NONE', #115, 1.999999999999993561 ) ;
#14 = DIRECTION ( 'NONE',  ( 0.0000000000000000000, 1.000000000000000000, 0.0000000000000000000 ) ) ;
#15 = DIRECTION ( 'NONE',  ( 3.491481338843133355E-15, 5.003927908061176541E-16, 1.000000000000000000 ) ) ;
#16 = EDGE_LOOP ( 'NONE', ( #134 ) ) ;
#17 = VERTEX_POINT ( 'NONE', #56 ) ;
#18 = EDGE_LOOP ( 'NONE', ( #73 ) ) ;
#19 = VERTEX_POINT ( 'NONE', #50 ) ;
#20 = AXIS2_PLACEMENT_3D ( 'NONE', #44, #233, #199 ) ;
#21 = DATE_AND_TIME ( #184, #201 ) ;
#22 = PERSON_AND_ORGANIZATION ( #128, #65 ) ;
#23 = ADVANCED_FACE ( 'NONE', ( #9, #37 ), #217, .T. ) ;
#24 = CIRCLE ( 'NONE', #129, 2.488999999999999435 ) ;
#25 = FACE_OUTER_BOUND ( 'NONE', #169, .T. ) ;
#26 = LOCAL_TIME ( 11, 3, 26.00000000000000000, #192 ) ;
#27 = MANIFOLD_SOLID_BREP ( 'Corps-Déplacer/Copier1[2]', #141 ) ;
#28 = APPROVAL_STATUS ( 'not_yet_approved' ) ;
#29 = DIRECTION ( 'NONE',  ( -3.491481338843133355E-15, 9.031770143711729009E-17, -1.000000000000000000 ) ) ;
#30 = FACE_OUTER_BOUND ( 'NONE', #159, .T. ) ;
#31 = EDGE_LOOP ( 'NONE', ( #179 ) ) ;
#32 = DIRECTION ( 'NONE',  ( 0.0000000000000000000, 1.000000000000000000, 0.0000000000000000000 ) ) ;
#33 = FACE_OUTER_BOUND ( 'NONE', #227, .T. ) ;
#34 = COORDINATED_UNIVERSAL_TIME_OFFSET ( 1, 0, .AHEAD. ) ;
#35 = EDGE_CURVE ( 'NONE', #193, #193, #24, .T. ) ;
#36 = PRODUCT ( '321401', '321401', '', ( #140 ) ) ;
#37 = FACE_OUTER_BOUND ( 'NONE', #120, .T. ) ;
#38 = CIRCLE ( 'NONE', #82, 2.258059892324148610 ) ;
#39 = ADVANCED_FACE ( 'NONE', ( #30 ), #175, .T. ) ;
#40 = DIRECTION ( 'NONE',  ( 1.747112091191195604E-30, -1.000000000000000000, 5.003927908061176541E-16 ) ) ;
#41 = PERSON_AND_ORGANIZATION ( #128, #65 ) ;
#42 = DIRECTION ( 'NONE',  ( -3.491481338843133355E-15, 9.031770143711729009E-17, -1.000000000000000000 ) ) ;
#43 = ORIENTED_EDGE ( 'NONE', *, *, #143, .F. ) ;
#44 = CARTESIAN_POINT ( 'NONE',  ( 4.589512271707645593E-14, 2.488999999999998103, 13.14488558380304362 ) ) ;
#45 = AXIS2_PLACEMENT_3D ( 'NONE', #60, #63, #32 ) ;
#46 = FACE_OUTER_BOUND ( 'NONE', #203, .T. ) ;
#47 = CC_DESIGN_DATE_AND_TIME_ASSIGNMENT ( #21, #87, ( #53 ) ) ;
#48 = CARTESIAN_POINT ( 'NONE',  ( 4.589512271707645593E-14, 6.577605982106309044E-15, 13.14488558380304362 ) ) ;
#49 = ORIENTED_EDGE ( 'NONE', *, *, #236, .T. ) ;
#50 = CARTESIAN_POINT ( 'NONE',  ( 1.396592535537253145E-15, 2.488999999999998547, 0.3999999999999999667 ) ) ;
#51 = CIRCLE ( 'NONE', #64, 1.599999999999994982 ) ;
#52 = ORIENTED_EDGE ( 'NONE', *, *, #58, .F. ) ;
#53 = PRODUCT_DEFINITION ( 'UNKNOWN', '', #239, #219 ) ;
#54 = CARTESIAN_POINT ( 'NONE',  ( 4.885231259955590439E-14, 1.999999999999990452, 13.99185842870425134 ) ) ;
#55 = APPLICATION_PROTOCOL_DEFINITION ( 'international standard', 'config_control_design', 1994, #103 ) ;
#56 = CARTESIAN_POINT ( 'NONE',  ( 0.0000000000000000000, 2.258059892324148610, 0.0000000000000000000 ) ) ;
#57 = PERSON_AND_ORGANIZATION ( #128, #65 ) ;
#58 = EDGE_CURVE ( 'NONE', #4, #4, #51, .T. ) ;
#59 = PERSON_AND_ORGANIZATION ( #128, #65 ) ;
#60 = CARTESIAN_POINT ( 'NONE',  ( 4.589512271707646224E-14, -1.187215851582990760E-15, 13.14488558380304539 ) ) ;
#61 = CARTESIAN_POINT ( 'NONE',  ( 1.396592535537257484E-15, 2.001571163224476631E-16, 0.4000000000000011879 ) ) ;
#62 = PLANE ( 'NONE',  #155 ) ;
#63 = DIRECTION ( 'NONE',  ( -3.491481338843133355E-15, 9.031770143711729009E-17, -1.000000000000000000 ) ) ;
#64 = AXIS2_PLACEMENT_3D ( 'NONE', #181, #238, #102 ) ;
#65 = ORGANIZATION ( 'UNSPECIFIED', 'UNSPECIFIED', '' ) ;
#66 = CARTESIAN_POINT ( 'NONE',  ( 2.779219145719134403E-13, -7.189289034394536528E-15, 79.60000000000000853 ) ) ;
#67 = PERSON_AND_ORGANIZATION_ROLE ( 'creator' ) ;
#68 = ORIENTED_EDGE ( 'NONE', *, *, #236, .F. ) ;
#69 = CARTESIAN_POINT ( 'NONE',  ( 4.589512271707646224E-14, 2.488999999999998103, 13.14488558380304539 ) ) ;
#70 = VERTEX_POINT ( 'NONE', #54 ) ;
#71 = CALENDAR_DATE ( 2021, 26, 11 ) ;
#72 = CC_DESIGN_APPROVAL ( #92, ( #177 ) ) ;
#73 = ORIENTED_EDGE ( 'NONE', *, *, #241, .T. ) ;
#74 = CIRCLE ( 'NONE', #100, 1.999999999999991784 ) ;
#75 = CC_DESIGN_SECURITY_CLASSIFICATION ( #177, ( #239 ) ) ;
#76 = CARTESIAN_POINT ( 'NONE',  ( 4.589512271707646856E-14, 6.577605982106309833E-15, 13.14488558380304717 ) ) ;
#77 = PERSON_AND_ORGANIZATION ( #128, #65 ) ;
#78 = PLANE ( 'NONE',  #20 ) ;
#79 = DATE_AND_TIME ( #96, #26 ) ;
#80 = DIRECTION ( 'NONE',  ( -3.491481338843133355E-15, -5.003927908061176541E-16, -1.000000000000000000 ) ) ;
#81 = DIRECTION ( 'NONE',  ( 3.491481338843133355E-15, 5.003927908061176541E-16, 1.000000000000000000 ) ) ;
#82 = AXIS2_PLACEMENT_3D ( 'NONE', #220, #148, #178 ) ;
#83 = EDGE_LOOP ( 'NONE', ( #49 ) ) ;
#84 = CARTESIAN_POINT ( 'NONE',  ( 2.779219145719134403E-13, 1.999999999999988010, 79.60000000000000853 ) ) ;
#85 = ORIENTED_EDGE ( 'NONE', *, *, #58, .T. ) ;
#86 = ADVANCED_BREP_SHAPE_REPRESENTATION ( '321401', ( #105, #27, #158 ), #183 ) ;
#87 = DATE_TIME_ROLE ( 'creation_date' ) ;
#88 = ADVANCED_FACE ( 'NONE', ( #237, #46 ), #13, .T. ) ;
#89 = DATE_AND_TIME ( #71, #210 ) ;
#90 = AXIS2_PLACEMENT_3D ( 'NONE', #66, #29, #194 ) ;
#91 = LOCAL_TIME ( 11, 3, 26.00000000000000000, #146 ) ;
#92 = APPROVAL ( #174, 'UNSPECIFIED' ) ;
#93 = SECURITY_CLASSIFICATION_LEVEL ( 'unclassified' ) ;
#94 = CC_DESIGN_APPROVAL ( #200, ( #239 ) ) ;
#95 = DIRECTION ( 'NONE',  ( -3.491481338843133355E-15, 9.031770143711729009E-17, -1.000000000000000000 ) ) ;
#96 = CALENDAR_DATE ( 2021, 26, 11 ) ;
#97 = ADVANCED_FACE ( 'NONE', ( #33 ), #62, .T. ) ;
#98 = CARTESIAN_POINT ( 'NONE',  ( 4.589512271707646224E-14, 2.488999999999998103, 13.14488558380304539 ) ) ;
#99 = CARTESIAN_POINT ( 'NONE',  ( 0.0000000000000000000, 0.0000000000000000000, 0.0000000000000000000 ) ) ;
#100 = AXIS2_PLACEMENT_3D ( 'NONE', #151, #42, #14 ) ;
#101 = EDGE_LOOP ( 'NONE', ( #85 ) ) ;
#102 = DIRECTION ( 'NONE',  ( 0.0000000000000000000, 1.000000000000000000, 0.0000000000000000000 ) ) ;
#103 = APPLICATION_CONTEXT ( 'configuration controlled 3d designs of mechanical parts and assemblies' ) ;
#104 = DIRECTION ( 'NONE',  ( -3.491481338843133355E-15, -5.003927908061176541E-16, -1.000000000000000000 ) ) ;
#105 = MANIFOLD_SOLID_BREP ( 'Corps-Déplacer/Copier1[1]', #107 ) ;
#106 = CC_DESIGN_PERSON_AND_ORGANIZATION_ASSIGNMENT ( #109, #213, ( #239 ) ) ;
#107 = CLOSED_SHELL ( 'NONE', ( #10, #23, #88, #161, #157 ) ) ;
#108 = APPROVAL_DATE_TIME ( #89, #229 ) ;
#109 = PERSON_AND_ORGANIZATION ( #128, #65 ) ;
#110 = CIRCLE ( 'NONE', #190, 2.488999999999998547 ) ;
#111 = APPLICATION_CONTEXT ( 'configuration controlled 3d designs of mechanical parts and assemblies' ) ;
#112 = CC_DESIGN_PERSON_AND_ORGANIZATION_ASSIGNMENT ( #59, #8, ( #239 ) ) ;
#113 = DIRECTION ( 'NONE',  ( -1.747112091191195954E-30, 1.000000000000000000, -5.003927908061176541E-16 ) ) ;
#114 = CYLINDRICAL_SURFACE ( 'NONE', #234, 2.488999999999994994 ) ;
#115 = AXIS2_PLACEMENT_3D ( 'NONE', #99, #132, #117 ) ;
#116 = FACE_OUTER_BOUND ( 'NONE', #121, .T. ) ;
#117 = DIRECTION ( 'NONE',  ( 3.153425691349006731E-31, 1.000000000000000000, 9.031770143711729009E-17 ) ) ;
#118 = EDGE_CURVE ( 'NONE', #17, #17, #38, .T. ) ;
#119 = CARTESIAN_POINT ( 'NONE',  ( -1.972541870256704942E-30, 2.258059892324148610, -5.649584456637211366E-16 ) ) ;
#120 = EDGE_LOOP ( 'NONE', ( #68 ) ) ;
#121 = EDGE_LOOP ( 'NONE', ( #242 ) ) ;
#122 =( NAMED_UNIT ( * ) SI_UNIT ( $, .STERADIAN. ) SOLID_ANGLE_UNIT ( ) );
#123 = CARTESIAN_POINT ( 'NONE',  ( 2.793185071074506684E-13, 1.599999999999987876, 80.00000000000000000 ) ) ;
#124 =( LENGTH_UNIT ( ) NAMED_UNIT ( * ) SI_UNIT ( .MILLI., .METRE. ) );
#125 = EDGE_CURVE ( 'NONE', #1, #1, #166, .T. ) ;
#126 = DIRECTION ( 'NONE',  ( 3.491481338843133355E-15, -9.031770143711729009E-17, 1.000000000000000000 ) ) ;
#127 = CARTESIAN_POINT ( 'NONE',  ( 4.589512271707646224E-14, -1.187215851582990760E-15, 13.14488558380304539 ) ) ;
#128 = PERSON ( 'UNSPECIFIED', 'UNSPECIFIED', 'UNSPECIFIED', ('UNSPECIFIED'), ('UNSPECIFIED'), ('UNSPECIFIED') ) ;
#129 = AXIS2_PLACEMENT_3D ( 'NONE', #127, #95, #198 ) ;
#130 = CALENDAR_DATE ( 2021, 26, 11 ) ;
#131 = COORDINATED_UNIVERSAL_TIME_OFFSET ( 1, 0, .AHEAD. ) ;
#132 = DIRECTION ( 'NONE',  ( -3.491481338843133355E-15, 9.031770143711729009E-17, -1.000000000000000000 ) ) ;
#133 = CC_DESIGN_PERSON_AND_ORGANIZATION_ASSIGNMENT ( #41, #172, ( #177 ) ) ;
#134 = ORIENTED_EDGE ( 'NONE', *, *, #118, .F. ) ;
#135 = UNCERTAINTY_MEASURE_WITH_UNIT (LENGTH_MEASURE( 1.000000000000000082E-05 ), #124, 'distance_accuracy_value', 'NONE');
#136 = DIRECTION ( 'NONE',  ( -1.747112091191195604E-30, 1.000000000000000000, -5.003927908061176541E-16 ) ) ;
#137 = APPROVAL_PERSON_ORGANIZATION ( #22, #229, #206 ) ;
#138 = ADVANCED_FACE ( 'NONE', ( #152, #235 ), #6, .T. ) ;
#139 = COORDINATED_UNIVERSAL_TIME_OFFSET ( 1, 0, .AHEAD. ) ;
#140 = MECHANICAL_CONTEXT ( 'NONE', #103, 'mechanical' ) ;
#141 = CLOSED_SHELL ( 'NONE', ( #39, #164, #138, #97 ) ) ;
#142 = DIRECTION ( 'NONE',  ( 0.0000000000000000000, 0.0000000000000000000, 1.000000000000000000 ) ) ;
#143 = EDGE_CURVE ( 'NONE', #19, #19, #110, .T. ) ;
#144 = APPROVAL_PERSON_ORGANIZATION ( #77, #92, #147 ) ;
#145 = CONICAL_SURFACE ( 'NONE', #45, 2.488999999999999435, 0.5235987755982929315 ) ;
#146 = COORDINATED_UNIVERSAL_TIME_OFFSET ( 1, 0, .AHEAD. ) ;
#147 = APPROVAL_ROLE ( '' ) ;
#148 = DIRECTION ( 'NONE',  ( -3.491481338843133355E-15, -5.003927908061176541E-16, -1.000000000000000000 ) ) ;
#149 = ORIENTED_EDGE ( 'NONE', *, *, #125, .T. ) ;
#150 = DATE_TIME_ROLE ( 'classification_date' ) ;
#151 = CARTESIAN_POINT ( 'NONE',  ( 4.885231259955590439E-14, -1.263712492114123682E-15, 13.99185842870425134 ) ) ;
#152 = FACE_OUTER_BOUND ( 'NONE', #243, .T. ) ;
#153 = ORIENTED_EDGE ( 'NONE', *, *, #241, .F. ) ;
#154 = DIRECTION ( 'NONE',  ( 1.747112091191195954E-30, -1.000000000000000000, 5.003927908061176541E-16 ) ) ;
#155 = AXIS2_PLACEMENT_3D ( 'NONE', #119, #104, #136 ) ;
#156 = DIRECTION ( 'NONE',  ( -3.491481338843133355E-15, -5.003927908061176541E-16, -1.000000000000000000 ) ) ;
#157 = ADVANCED_FACE ( 'NONE', ( #216 ), #78, .T. ) ;
#158 = AXIS2_PLACEMENT_3D ( 'NONE', #187, #142, #160 ) ;
#159 = EDGE_LOOP ( 'NONE', ( #182 ) ) ;
#160 = DIRECTION ( 'NONE',  ( 1.000000000000000000, 0.0000000000000000000, 0.0000000000000000000 ) ) ;
#161 = ADVANCED_FACE ( 'NONE', ( #173, #116 ), #145, .T. ) ;
#162 = PERSON_AND_ORGANIZATION ( #128, #65 ) ;
#163 = PERSON_AND_ORGANIZATION ( #128, #65 ) ;
#164 = ADVANCED_FACE ( 'NONE', ( #240, #218 ), #114, .T. ) ;
#165 = AXIS2_PLACEMENT_3D ( 'NONE', #171, #126, #212 ) ;
#166 = CIRCLE ( 'NONE', #230, 2.488999999999991442 ) ;
#167 = CC_DESIGN_APPROVAL ( #229, ( #53 ) ) ;
#168 = PLANE ( 'NONE',  #165 ) ;
#169 = EDGE_LOOP ( 'NONE', ( #52 ) ) ;
#170 = DATE_AND_TIME ( #12, #91 ) ;
#171 = CARTESIAN_POINT ( 'NONE',  ( 2.793185071074506684E-13, -7.225416114969383207E-15, 80.00000000000000000 ) ) ;
#172 = PERSON_AND_ORGANIZATION_ROLE ( 'classification_officer' ) ;
#173 = FACE_BOUND ( 'NONE', #18, .T. ) ;
#174 = APPROVAL_STATUS ( 'not_yet_approved' ) ;
#175 = PLANE ( 'NONE',  #228 ) ;
#176 = APPROVAL_ROLE ( '' ) ;
#177 = SECURITY_CLASSIFICATION ( '', '', #93 ) ;
#178 = DIRECTION ( 'NONE',  ( -1.747112091191195954E-30, 1.000000000000000000, -5.003927908061176541E-16 ) ) ;
#179 = ORIENTED_EDGE ( 'NONE', *, *, #35, .T. ) ;
#180 = CARTESIAN_POINT ( 'NONE',  ( 0.0000000000000000000, 0.0000000000000000000, 0.0000000000000000000 ) ) ;
#181 = CARTESIAN_POINT ( 'NONE',  ( 2.793185071074506684E-13, -7.225416114969383207E-15, 80.00000000000000000 ) ) ;
#182 = ORIENTED_EDGE ( 'NONE', *, *, #125, .F. ) ;
#183 =( GEOMETRIC_REPRESENTATION_CONTEXT ( 3 ) GLOBAL_UNCERTAINTY_ASSIGNED_CONTEXT ( ( #135 ) ) GLOBAL_UNIT_ASSIGNED_CONTEXT ( ( #124, #5, #122 ) ) REPRESENTATION_CONTEXT ( 'NONE', 'WORKASPACE' ) );
#184 = CALENDAR_DATE ( 2021, 26, 11 ) ;
#185 = CIRCLE ( 'NONE', #90, 1.999999999999995337 ) ;
#186 = LOCAL_TIME ( 11, 3, 26.00000000000000000, #131 ) ;
#187 = CARTESIAN_POINT ( 'NONE',  ( 0.0000000000000000000, 0.0000000000000000000, 0.0000000000000000000 ) ) ;
#188 = PRODUCT_DEFINITION_SHAPE ( 'NONE', 'NONE',  #53 ) ;
#189 = SHAPE_DEFINITION_REPRESENTATION ( #188, #86 ) ;
#190 = AXIS2_PLACEMENT_3D ( 'NONE', #61, #156, #215 ) ;
#191 = APPROVAL_DATE_TIME ( #79, #92 ) ;
#192 = COORDINATED_UNIVERSAL_TIME_OFFSET ( 1, 0, .AHEAD. ) ;
#193 = VERTEX_POINT ( 'NONE', #98 ) ;
#194 = DIRECTION ( 'NONE',  ( 0.0000000000000000000, 1.000000000000000000, 0.0000000000000000000 ) ) ;
#195 = ORIENTED_EDGE ( 'NONE', *, *, #143, .T. ) ;
#196 = APPROVAL_PERSON_ORGANIZATION ( #162, #200, #176 ) ;
#197 = CARTESIAN_POINT ( 'NONE',  ( 3.945083740513409884E-30, 5.654022666303115718E-31, 1.129916891327442273E-15 ) ) ;
#198 = DIRECTION ( 'NONE',  ( 0.0000000000000000000, 1.000000000000000000, 0.0000000000000000000 ) ) ;
#199 = DIRECTION ( 'NONE',  ( 3.153425691349006731E-31, 1.000000000000000000, 9.031770143711729009E-17 ) ) ;
#200 = APPROVAL ( #28, 'UNSPECIFIED' ) ;
#201 = LOCAL_TIME ( 11, 3, 26.00000000000000000, #139 ) ;
#202 = APPROVAL_STATUS ( 'not_yet_approved' ) ;
#203 = EDGE_LOOP ( 'NONE', ( #153 ) ) ;
#204 = APPLICATION_PROTOCOL_DEFINITION ( 'international standard', 'config_control_design', 1994, #111 ) ;
#205 = CC_DESIGN_PERSON_AND_ORGANIZATION_ASSIGNMENT ( #163, #67, ( #53 ) ) ;
#206 = APPROVAL_ROLE ( '' ) ;
#207 = CARTESIAN_POINT ( 'NONE',  ( 2.779219145719134403E-13, -7.189289034394536528E-15, 79.60000000000000853 ) ) ;
#208 = DIRECTION ( 'NONE',  ( -3.491481338843133355E-15, 9.031770143711729009E-17, -1.000000000000000000 ) ) ;
#209 = PRODUCT_RELATED_PRODUCT_CATEGORY ( 'detail', '', ( #36 ) ) ;
#210 = LOCAL_TIME ( 11, 3, 26.00000000000000000, #34 ) ;
#211 = DIRECTION ( 'NONE',  ( 0.0000000000000000000, 1.000000000000000000, 0.0000000000000000000 ) ) ;
#212 = DIRECTION ( 'NONE',  ( -3.153425691349006731E-31, -1.000000000000000000, -9.031770143711729009E-17 ) ) ;
#213 = PERSON_AND_ORGANIZATION_ROLE ( 'design_supplier' ) ;
#214 = DIRECTION ( 'NONE',  ( -3.491481338843133355E-15, -5.003927908061176541E-16, -1.000000000000000000 ) ) ;
#215 = DIRECTION ( 'NONE',  ( -1.779686167975349554E-30, 1.000000000000000000, -5.009371226831381378E-16 ) ) ;
#216 = FACE_OUTER_BOUND ( 'NONE', #31, .T. ) ;
#217 = CONICAL_SURFACE ( 'NONE', #3, 1.999999999999995337, 0.7853981633974516097 ) ;
#218 = FACE_OUTER_BOUND ( 'NONE', #221, .T. ) ;
#219 = DESIGN_CONTEXT ( 'detailed design', #111, 'design' ) ;
#220 = CARTESIAN_POINT ( 'NONE',  ( 3.945083740513409884E-30, 5.654022666303115718E-31, 1.129916891327442273E-15 ) ) ;
#221 = EDGE_LOOP ( 'NONE', ( #43 ) ) ;
#222 = CC_DESIGN_DATE_AND_TIME_ASSIGNMENT ( #231, #150, ( #177 ) ) ;
#223 = EDGE_LOOP ( 'NONE', ( #149 ) ) ;
#224 = AXIS2_PLACEMENT_3D ( 'NONE', #197, #81, #154 ) ;
#225 = VERTEX_POINT ( 'NONE', #84 ) ;
#226 = PERSON_AND_ORGANIZATION_ROLE ( 'design_owner' ) ;
#227 = EDGE_LOOP ( 'NONE', ( #2 ) ) ;
#228 = AXIS2_PLACEMENT_3D ( 'NONE', #48, #15, #40 ) ;
#229 = APPROVAL ( #202, 'UNSPECIFIED' ) ;
#230 = AXIS2_PLACEMENT_3D ( 'NONE', #76, #80, #11 ) ;
#231 = DATE_AND_TIME ( #130, #186 ) ;
#232 = APPROVAL_DATE_TIME ( #170, #200 ) ;
#233 = DIRECTION ( 'NONE',  ( -3.491481338843133355E-15, 9.031770143711729009E-17, -1.000000000000000000 ) ) ;
#234 = AXIS2_PLACEMENT_3D ( 'NONE', #180, #214, #113 ) ;
#235 = FACE_BOUND ( 'NONE', #16, .T. ) ;
#236 = EDGE_CURVE ( 'NONE', #225, #225, #185, .T. ) ;
#237 = FACE_OUTER_BOUND ( 'NONE', #83, .T. ) ;
#238 = DIRECTION ( 'NONE',  ( -3.491481338843133355E-15, 9.031770143711729009E-17, -1.000000000000000000 ) ) ;
#239 = PRODUCT_DEFINITION_FORMATION_WITH_SPECIFIED_SOURCE ( 'ANY', '', #36, .NOT_KNOWN. ) ;
#240 = FACE_OUTER_BOUND ( 'NONE', #223, .T. ) ;
#241 = EDGE_CURVE ( 'NONE', #70, #70, #74, .T. ) ;
#242 = ORIENTED_EDGE ( 'NONE', *, *, #35, .F. ) ;
#243 = EDGE_LOOP ( 'NONE', ( #195 ) ) ;
ENDSEC;
END-ISO-10303-21;
