ISO-10303-21;
HEADER;
FILE_DESCRIPTION (( 'STEP AP203' ),
    '1' );
FILE_NAME ('321400.step',
    '2021-11-26T10:03:25',
    ( '' ),
    ( '' ),
    'SwSTEP 2.0',
    'SolidWorks 2019',
    '' );
FILE_SCHEMA (( 'CONFIG_CONTROL_DESIGN' ));
ENDSEC;

DATA;
#1 = AXIS2_PLACEMENT_3D ( 'NONE', #121, #13, #80 ) ;
#2 = VERTEX_POINT ( 'NONE', #127 ) ;
#3 = DIRECTION ( 'NONE',  ( -2.481069171513355443E-30, 1.000000000000000000, -6.983588872692483001E-16 ) ) ;
#4 = ADVANCED_FACE ( 'NONE', ( #198, #203 ), #212, .T. ) ;
#5 = APPROVAL ( #18, 'UNSPECIFIED' ) ;
#6 = CARTESIAN_POINT ( 'NONE',  ( 4.885231259955590439E-14, 1.999999999999990452, 13.99185842870425134 ) ) ;
#7 = APPROVAL_DATE_TIME ( #112, #87 ) ;
#8 = APPROVAL_DATE_TIME ( #92, #5 ) ;
#9 = CC_DESIGN_APPROVAL ( #58, ( #174 ) ) ;
#10 = SECURITY_CLASSIFICATION_LEVEL ( 'unclassified' ) ;
#11 = EDGE_CURVE ( 'NONE', #86, #86, #27, .T. ) ;
#12 = AXIS2_PLACEMENT_3D ( 'NONE', #139, #218, #240 ) ;
#13 = DIRECTION ( 'NONE',  ( -3.491481338843133355E-15, -4.999020729993667215E-16, -1.000000000000000000 ) ) ;
#14 = PRODUCT_RELATED_PRODUCT_CATEGORY ( 'detail', '', ( #34 ) ) ;
#15 = DIRECTION ( 'NONE',  ( -3.491481338843133355E-15, 9.031770143711729009E-17, -1.000000000000000000 ) ) ;
#16 = DIRECTION ( 'NONE',  ( -1.745398759126286259E-30, 1.000000000000000000, -4.999020729993666228E-16 ) ) ;
#17 = FACE_OUTER_BOUND ( 'NONE', #98, .T. ) ;
#18 = APPROVAL_STATUS ( 'not_yet_approved' ) ;
#19 = AXIS2_PLACEMENT_3D ( 'NONE', #63, #133, #81 ) ;
#20 = APPLICATION_PROTOCOL_DEFINITION ( 'international standard', 'config_control_design', 1994, #79 ) ;
#21 = DATE_AND_TIME ( #53, #208 ) ;
#22 = VERTEX_POINT ( 'NONE', #89 ) ;
#23 = LOCAL_TIME ( 11, 3, 25.00000000000000000, #231 ) ;
#24 = CALENDAR_DATE ( 2021, 26, 11 ) ;
#25 = ORIENTED_EDGE ( 'NONE', *, *, #11, .T. ) ;
#26 = EDGE_LOOP ( 'NONE', ( #235 ) ) ;
#27 = CIRCLE ( 'NONE', #160, 1.999999999999991784 ) ;
#28 = EDGE_LOOP ( 'NONE', ( #25 ) ) ;
#29 = ORIENTED_EDGE ( 'NONE', *, *, #90, .F. ) ;
#30 = DIRECTION ( 'NONE',  ( 3.491481338843133355E-15, 4.999020729993667215E-16, 1.000000000000000000 ) ) ;
#31 = FACE_OUTER_BOUND ( 'NONE', #171, .T. ) ;
#32 = DIRECTION ( 'NONE',  ( -3.491481338843133355E-15, 9.031770143711729009E-17, -1.000000000000000000 ) ) ;
#33 = FACE_OUTER_BOUND ( 'NONE', #213, .T. ) ;
#34 = PRODUCT ( '321400', '321400', '', ( #88 ) ) ;
#35 = AXIS2_PLACEMENT_3D ( 'NONE', #48, #15, #223 ) ;
#36 = DIRECTION ( 'NONE',  ( -3.491481338843133355E-15, 9.031770143711729009E-17, -1.000000000000000000 ) ) ;
#37 = APPROVAL_STATUS ( 'not_yet_approved' ) ;
#38 = AXIS2_PLACEMENT_3D ( 'NONE', #77, #46, #238 ) ;
#39 = APPLICATION_PROTOCOL_DEFINITION ( 'international standard', 'config_control_design', 1994, #168 ) ;
#40 = PERSON_AND_ORGANIZATION_ROLE ( 'design_owner' ) ;
#41 = PERSON_AND_ORGANIZATION ( #196, #111 ) ;
#42 = DATE_AND_TIME ( #24, #23 ) ;
#43 = CIRCLE ( 'NONE', #183, 1.599999999999994982 ) ;
#44 = FACE_OUTER_BOUND ( 'NONE', #56, .T. ) ;
#45 = AXIS2_PLACEMENT_3D ( 'NONE', #119, #100, #16 ) ;
#46 = DIRECTION ( 'NONE',  ( -3.491481338843133355E-15, -4.999020729993667215E-16, -1.000000000000000000 ) ) ;
#47 = PLANE ( 'NONE',  #75 ) ;
#48 = CARTESIAN_POINT ( 'NONE',  ( 4.592535983243923729E-14, -1.187998025821550451E-15, 13.15354583784089115 ) ) ;
#49 =( NAMED_UNIT ( * ) PLANE_ANGLE_UNIT ( ) SI_UNIT ( $, .RADIAN. ) );
#50 =( NAMED_UNIT ( * ) SI_UNIT ( $, .STERADIAN. ) SOLID_ANGLE_UNIT ( ) );
#51 = PERSON_AND_ORGANIZATION ( #196, #111 ) ;
#52 = DIRECTION ( 'NONE',  ( -3.491481338843133355E-15, -4.999020729993667215E-16, -1.000000000000000000 ) ) ;
#53 = CALENDAR_DATE ( 2021, 26, 11 ) ;
#54 = EDGE_CURVE ( 'NONE', #22, #22, #233, .T. ) ;
#55 = CALENDAR_DATE ( 2021, 26, 11 ) ;
#56 = EDGE_LOOP ( 'NONE', ( #195 ) ) ;
#57 = AXIS2_PLACEMENT_3D ( 'NONE', #205, #222, #159 ) ;
#58 = APPROVAL ( #37, 'UNSPECIFIED' ) ;
#59 = ORIENTED_EDGE ( 'NONE', *, *, #70, .F. ) ;
#60 = PERSON_AND_ORGANIZATION ( #196, #111 ) ;
#61 = ORIENTED_EDGE ( 'NONE', *, *, #211, .F. ) ;
#62 = APPROVAL_PERSON_ORGANIZATION ( #51, #58, #226 ) ;
#63 = CARTESIAN_POINT ( 'NONE',  ( 3.932487940299773336E-30, 5.630443592896972406E-31, 1.126309310764571563E-15 ) ) ;
#64 = CARTESIAN_POINT ( 'NONE',  ( 2.793185071074506684E-13, -7.225416114969383207E-15, 80.00000000000000000 ) ) ;
#65 = FACE_OUTER_BOUND ( 'NONE', #130, .T. ) ;
#66 = CYLINDRICAL_SURFACE ( 'NONE', #120, 1.999999999999993561 ) ;
#67 = CARTESIAN_POINT ( 'NONE',  ( 2.779219145719134403E-13, -7.189289034394536528E-15, 79.60000000000000853 ) ) ;
#68 = AXIS2_PLACEMENT_3D ( 'NONE', #67, #104, #124 ) ;
#69 = CC_DESIGN_DATE_AND_TIME_ASSIGNMENT ( #42, #116, ( #237 ) ) ;
#70 = EDGE_CURVE ( 'NONE', #71, #71, #43, .T. ) ;
#71 = VERTEX_POINT ( 'NONE', #126 ) ;
#72 = PERSON_AND_ORGANIZATION_ROLE ( 'creator' ) ;
#73 = PERSON_AND_ORGANIZATION ( #196, #111 ) ;
#74 = EDGE_LOOP ( 'NONE', ( #217 ) ) ;
#75 = AXIS2_PLACEMENT_3D ( 'NONE', #101, #122, #157 ) ;
#76 = PERSON_AND_ORGANIZATION ( #196, #111 ) ;
#77 = CARTESIAN_POINT ( 'NONE',  ( -1.966243970149886668E-30, 2.253059892324148272, -5.631546553822857813E-16 ) ) ;
#78 = CC_DESIGN_APPROVAL ( #87, ( #237 ) ) ;
#79 = APPLICATION_CONTEXT ( 'configuration controlled 3d designs of mechanical parts and assemblies' ) ;
#80 = DIRECTION ( 'NONE',  ( -1.745398759126286609E-30, 1.000000000000000000, -4.999020729993667215E-16 ) ) ;
#81 = DIRECTION ( 'NONE',  ( 1.745398759126285909E-30, -1.000000000000000000, 4.999020729993666228E-16 ) ) ;
#82 = CARTESIAN_POINT ( 'NONE',  ( 0.0000000000000000000, 0.0000000000000000000, 0.0000000000000000000 ) ) ;
#83 = AXIS2_PLACEMENT_3D ( 'NONE', #167, #52, #3 ) ;
#84 = FACE_BOUND ( 'NONE', #197, .T. ) ;
#85 = ADVANCED_FACE ( 'NONE', ( #31 ), #239, .T. ) ;
#86 = VERTEX_POINT ( 'NONE', #6 ) ;
#87 = APPROVAL ( #148, 'UNSPECIFIED' ) ;
#88 = MECHANICAL_CONTEXT ( 'NONE', #168, 'mechanical' ) ;
#89 = CARTESIAN_POINT ( 'NONE',  ( 1.396592535537252948E-15, 2.483999999999997765, 0.3999999999999999112 ) ) ;
#90 = EDGE_CURVE ( 'NONE', #164, #164, #145, .T. ) ;
#91 = AXIS2_PLACEMENT_3D ( 'NONE', #105, #144, #187 ) ;
#92 = DATE_AND_TIME ( #225, #128 ) ;
#93 = ORIENTED_EDGE ( 'NONE', *, *, #181, .T. ) ;
#94 = ORIENTED_EDGE ( 'NONE', *, *, #54, .T. ) ;
#95 = ADVANCED_FACE ( 'NONE', ( #161 ), #47, .T. ) ;
#96 = ADVANCED_FACE ( 'NONE', ( #33, #84 ), #204, .T. ) ;
#97 = EDGE_LOOP ( 'NONE', ( #59 ) ) ;
#98 = EDGE_LOOP ( 'NONE', ( #176 ) ) ;
#99 = DIRECTION ( 'NONE',  ( -3.491481338843133355E-15, 9.031770143711729009E-17, -1.000000000000000000 ) ) ;
#100 = DIRECTION ( 'NONE',  ( -3.491481338843133355E-15, -4.999020729993667215E-16, -1.000000000000000000 ) ) ;
#101 = CARTESIAN_POINT ( 'NONE',  ( 2.793185071074506684E-13, -7.225416114969383207E-15, 80.00000000000000000 ) ) ;
#102 = DIRECTION ( 'NONE',  ( 1.745398759126286609E-30, -1.000000000000000000, 4.999020729993667215E-16 ) ) ;
#103 = AXIS2_PLACEMENT_3D ( 'NONE', #158, #30, #102 ) ;
#104 = DIRECTION ( 'NONE',  ( -3.491481338843133355E-15, 9.031770143711729009E-17, -1.000000000000000000 ) ) ;
#105 = CARTESIAN_POINT ( 'NONE',  ( 0.0000000000000000000, 0.0000000000000000000, 0.0000000000000000000 ) ) ;
#106 = CARTESIAN_POINT ( 'NONE',  ( 4.592535983243923729E-14, 2.483999999999998209, 13.15354583784089115 ) ) ;
#107 = CC_DESIGN_SECURITY_CLASSIFICATION ( #237, ( #115 ) ) ;
#108 = COORDINATED_UNIVERSAL_TIME_OFFSET ( 1, 0, .AHEAD. ) ;
#109 = CALENDAR_DATE ( 2021, 26, 11 ) ;
#110 = DIRECTION ( 'NONE',  ( 0.0000000000000000000, 1.000000000000000000, 0.0000000000000000000 ) ) ;
#111 = ORGANIZATION ( 'UNSPECIFIED', 'UNSPECIFIED', '' ) ;
#112 = DATE_AND_TIME ( #55, #192 ) ;
#113 = ADVANCED_FACE ( 'NONE', ( #17, #162 ), #66, .T. ) ;
#114 = EDGE_LOOP ( 'NONE', ( #29 ) ) ;
#115 = PRODUCT_DEFINITION_FORMATION_WITH_SPECIFIED_SOURCE ( 'ANY', '', #34, .NOT_KNOWN. ) ;
#116 = DATE_TIME_ROLE ( 'classification_date' ) ;
#117 = DESIGN_CONTEXT ( 'detailed design', #79, 'design' ) ;
#118 = FACE_OUTER_BOUND ( 'NONE', #132, .T. ) ;
#119 = CARTESIAN_POINT ( 'NONE',  ( 3.932487940299773336E-30, 5.630443592896972406E-31, 1.126309310764571563E-15 ) ) ;
#120 = AXIS2_PLACEMENT_3D ( 'NONE', #82, #99, #134 ) ;
#121 = CARTESIAN_POINT ( 'NONE',  ( 0.0000000000000000000, 0.0000000000000000000, 0.0000000000000000000 ) ) ;
#122 = DIRECTION ( 'NONE',  ( 3.491481338843133355E-15, -9.031770143711729009E-17, 1.000000000000000000 ) ) ;
#123 = CC_DESIGN_PERSON_AND_ORGANIZATION_ASSIGNMENT ( #76, #193, ( #115 ) ) ;
#124 = DIRECTION ( 'NONE',  ( 0.0000000000000000000, 1.000000000000000000, 0.0000000000000000000 ) ) ;
#125 = CIRCLE ( 'NONE', #170, 1.999999999999995337 ) ;
#126 = CARTESIAN_POINT ( 'NONE',  ( 2.793185071074506684E-13, 1.599999999999987876, 80.00000000000000000 ) ) ;
#127 = CARTESIAN_POINT ( 'NONE',  ( 6.842277657836020854E-46, 2.253059892324148272, 0.0000000000000000000 ) ) ;
#128 = LOCAL_TIME ( 11, 3, 25.00000000000000000, #141 ) ;
#129 = DATE_TIME_ROLE ( 'creation_date' ) ;
#130 = EDGE_LOOP ( 'NONE', ( #232 ) ) ;
#131 = PERSON_AND_ORGANIZATION_ROLE ( 'design_supplier' ) ;
#132 = EDGE_LOOP ( 'NONE', ( #155 ) ) ;
#133 = DIRECTION ( 'NONE',  ( 3.491481338843133355E-15, 4.999020729993667215E-16, 1.000000000000000000 ) ) ;
#134 = DIRECTION ( 'NONE',  ( 3.153425691349006731E-31, 1.000000000000000000, 9.031770143711729009E-17 ) ) ;
#135 = ADVANCED_FACE ( 'NONE', ( #243 ), #219, .T. ) ;
#136 = CLOSED_SHELL ( 'NONE', ( #95, #147, #113, #4, #135 ) ) ;
#137 = FACE_OUTER_BOUND ( 'NONE', #149, .T. ) ;
#138 = DIRECTION ( 'NONE',  ( 3.153425691349006731E-31, 1.000000000000000000, 9.031770143711729009E-17 ) ) ;
#139 = CARTESIAN_POINT ( 'NONE',  ( 1.396592535537257286E-15, 1.999608291997472753E-16, 0.4000000000000011324 ) ) ;
#140 = MANIFOLD_SOLID_BREP ( 'Corps-Déplacer/Copier1[1]', #136 ) ;
#141 = COORDINATED_UNIVERSAL_TIME_OFFSET ( 1, 0, .AHEAD. ) ;
#142 = CARTESIAN_POINT ( 'NONE',  ( 4.592535983243923729E-14, 2.483999999999998209, 13.15354583784089115 ) ) ;
#143 = CC_DESIGN_PERSON_AND_ORGANIZATION_ASSIGNMENT ( #153, #214, ( #237 ) ) ;
#144 = DIRECTION ( 'NONE',  ( 0.0000000000000000000, 0.0000000000000000000, 1.000000000000000000 ) ) ;
#145 = CIRCLE ( 'NONE', #35, 2.483999999999999542 ) ;
#146 = APPROVAL_DATE_TIME ( #188, #58 ) ;
#147 = ADVANCED_FACE ( 'NONE', ( #221, #65 ), #215, .T. ) ;
#148 = APPROVAL_STATUS ( 'not_yet_approved' ) ;
#149 = EDGE_LOOP ( 'NONE', ( #93 ) ) ;
#150 = ORIENTED_EDGE ( 'NONE', *, *, #70, .T. ) ;
#151 = CIRCLE ( 'NONE', #83, 2.483999999999991992 ) ;
#152 = CIRCLE ( 'NONE', #45, 2.253059892324148272 ) ;
#153 = PERSON_AND_ORGANIZATION ( #196, #111 ) ;
#154 = ADVANCED_FACE ( 'NONE', ( #137 ), #185, .T. ) ;
#155 = ORIENTED_EDGE ( 'NONE', *, *, #54, .F. ) ;
#156 = APPROVAL_PERSON_ORGANIZATION ( #73, #87, #175 ) ;
#157 = DIRECTION ( 'NONE',  ( -3.153425691349006731E-31, -1.000000000000000000, -9.031770143711729009E-17 ) ) ;
#158 = CARTESIAN_POINT ( 'NONE',  ( 4.592535983243924360E-14, 6.575484831628853434E-15, 13.15354583784089293 ) ) ;
#159 = DIRECTION ( 'NONE',  ( 0.0000000000000000000, 1.000000000000000000, 0.0000000000000000000 ) ) ;
#160 = AXIS2_PLACEMENT_3D ( 'NONE', #182, #200, #199 ) ;
#161 = FACE_OUTER_BOUND ( 'NONE', #97, .T. ) ;
#162 = FACE_OUTER_BOUND ( 'NONE', #26, .T. ) ;
#163 = ADVANCED_FACE ( 'NONE', ( #44, #118 ), #179, .T. ) ;
#164 = VERTEX_POINT ( 'NONE', #142 ) ;
#165 = APPROVAL_ROLE ( '' ) ;
#166 = CLOSED_SHELL ( 'NONE', ( #85, #163, #96, #154 ) ) ;
#167 = CARTESIAN_POINT ( 'NONE',  ( 4.592535983243924360E-14, 6.575484831628855011E-15, 13.15354583784089293 ) ) ;
#168 = APPLICATION_CONTEXT ( 'configuration controlled 3d designs of mechanical parts and assemblies' ) ;
#169 = CC_DESIGN_PERSON_AND_ORGANIZATION_ASSIGNMENT ( #60, #131, ( #115 ) ) ;
#170 = AXIS2_PLACEMENT_3D ( 'NONE', #201, #32, #110 ) ;
#171 = EDGE_LOOP ( 'NONE', ( #61 ) ) ;
#172 = ADVANCED_BREP_SHAPE_REPRESENTATION ( '321400', ( #140, #227, #91 ), #173 ) ;
#173 =( GEOMETRIC_REPRESENTATION_CONTEXT ( 3 ) GLOBAL_UNCERTAINTY_ASSIGNED_CONTEXT ( ( #216 ) ) GLOBAL_UNIT_ASSIGNED_CONTEXT ( ( #224, #49, #50 ) ) REPRESENTATION_CONTEXT ( 'NONE', 'WORKASPACE' ) );
#174 = PRODUCT_DEFINITION ( 'UNKNOWN', '', #115, #117 ) ;
#175 = APPROVAL_ROLE ( '' ) ;
#176 = ORIENTED_EDGE ( 'NONE', *, *, #209, .T. ) ;
#177 = EDGE_LOOP ( 'NONE', ( #150 ) ) ;
#178 = CC_DESIGN_PERSON_AND_ORGANIZATION_ASSIGNMENT ( #190, #72, ( #174 ) ) ;
#179 = CYLINDRICAL_SURFACE ( 'NONE', #1, 2.483999999999995101 ) ;
#180 = DIRECTION ( 'NONE',  ( -3.491481338843133355E-15, 9.031770143711729009E-17, -1.000000000000000000 ) ) ;
#181 = EDGE_CURVE ( 'NONE', #2, #2, #152, .T. ) ;
#182 = CARTESIAN_POINT ( 'NONE',  ( 4.885231259955590439E-14, -1.263712492114123682E-15, 13.99185842870425134 ) ) ;
#183 = AXIS2_PLACEMENT_3D ( 'NONE', #64, #180, #184 ) ;
#184 = DIRECTION ( 'NONE',  ( 0.0000000000000000000, 1.000000000000000000, 0.0000000000000000000 ) ) ;
#185 = PLANE ( 'NONE',  #38 ) ;
#186 = PRODUCT_DEFINITION_SHAPE ( 'NONE', 'NONE',  #174 ) ;
#187 = DIRECTION ( 'NONE',  ( 1.000000000000000000, 0.0000000000000000000, 0.0000000000000000000 ) ) ;
#188 = DATE_AND_TIME ( #109, #189 ) ;
#189 = LOCAL_TIME ( 11, 3, 25.00000000000000000, #108 ) ;
#190 = PERSON_AND_ORGANIZATION ( #196, #111 ) ;
#191 = VERTEX_POINT ( 'NONE', #106 ) ;
#192 = LOCAL_TIME ( 11, 3, 25.00000000000000000, #194 ) ;
#193 = PERSON_AND_ORGANIZATION_ROLE ( 'creator' ) ;
#194 = COORDINATED_UNIVERSAL_TIME_OFFSET ( 1, 0, .AHEAD. ) ;
#195 = ORIENTED_EDGE ( 'NONE', *, *, #211, .T. ) ;
#196 = PERSON ( 'UNSPECIFIED', 'UNSPECIFIED', 'UNSPECIFIED', ('UNSPECIFIED'), ('UNSPECIFIED'), ('UNSPECIFIED') ) ;
#197 = EDGE_LOOP ( 'NONE', ( #236 ) ) ;
#198 = FACE_BOUND ( 'NONE', #28, .T. ) ;
#199 = DIRECTION ( 'NONE',  ( 0.0000000000000000000, 1.000000000000000000, 0.0000000000000000000 ) ) ;
#200 = DIRECTION ( 'NONE',  ( -3.491481338843133355E-15, 9.031770143711729009E-17, -1.000000000000000000 ) ) ;
#201 = CARTESIAN_POINT ( 'NONE',  ( 2.779219145719134403E-13, -7.189289034394536528E-15, 79.60000000000000853 ) ) ;
#202 = CC_DESIGN_PERSON_AND_ORGANIZATION_ASSIGNMENT ( #210, #40, ( #34 ) ) ;
#203 = FACE_OUTER_BOUND ( 'NONE', #114, .T. ) ;
#204 = CONICAL_SURFACE ( 'NONE', #19, 2.253059892324148272, 0.5235987755982979275 ) ;
#205 = CARTESIAN_POINT ( 'NONE',  ( 4.592535983243923729E-14, -1.187998025821550451E-15, 13.15354583784089115 ) ) ;
#206 = CC_DESIGN_DATE_AND_TIME_ASSIGNMENT ( #21, #129, ( #174 ) ) ;
#207 = CARTESIAN_POINT ( 'NONE',  ( 2.779219145719134403E-13, 1.999999999999988010, 79.60000000000000853 ) ) ;
#208 = LOCAL_TIME ( 11, 3, 25.00000000000000000, #230 ) ;
#209 = EDGE_CURVE ( 'NONE', #228, #228, #125, .T. ) ;
#210 = PERSON_AND_ORGANIZATION ( #196, #111 ) ;
#211 = EDGE_CURVE ( 'NONE', #191, #191, #151, .T. ) ;
#212 = CONICAL_SURFACE ( 'NONE', #57, 2.483999999999999542, 0.5235987755982934866 ) ;
#213 = EDGE_LOOP ( 'NONE', ( #94 ) ) ;
#214 = PERSON_AND_ORGANIZATION_ROLE ( 'classification_officer' ) ;
#215 = CONICAL_SURFACE ( 'NONE', #68, 1.999999999999995337, 0.7853981633974516097 ) ;
#216 = UNCERTAINTY_MEASURE_WITH_UNIT (LENGTH_MEASURE( 1.000000000000000082E-05 ), #224, 'distance_accuracy_value', 'NONE');
#217 = ORIENTED_EDGE ( 'NONE', *, *, #90, .T. ) ;
#218 = DIRECTION ( 'NONE',  ( -3.491481338843133355E-15, -4.999020729993667215E-16, -1.000000000000000000 ) ) ;
#219 = PLANE ( 'NONE',  #220 ) ;
#220 = AXIS2_PLACEMENT_3D ( 'NONE', #242, #36, #138 ) ;
#221 = FACE_BOUND ( 'NONE', #177, .T. ) ;
#222 = DIRECTION ( 'NONE',  ( -3.491481338843133355E-15, 9.031770143711729009E-17, -1.000000000000000000 ) ) ;
#223 = DIRECTION ( 'NONE',  ( 0.0000000000000000000, 1.000000000000000000, 0.0000000000000000000 ) ) ;
#224 =( LENGTH_UNIT ( ) NAMED_UNIT ( * ) SI_UNIT ( .MILLI., .METRE. ) );
#225 = CALENDAR_DATE ( 2021, 26, 11 ) ;
#226 = APPROVAL_ROLE ( '' ) ;
#227 = MANIFOLD_SOLID_BREP ( 'Corps-Déplacer/Copier1[2]', #166 ) ;
#228 = VERTEX_POINT ( 'NONE', #207 ) ;
#229 = CC_DESIGN_APPROVAL ( #5, ( #115 ) ) ;
#230 = COORDINATED_UNIVERSAL_TIME_OFFSET ( 1, 0, .AHEAD. ) ;
#231 = COORDINATED_UNIVERSAL_TIME_OFFSET ( 1, 0, .AHEAD. ) ;
#232 = ORIENTED_EDGE ( 'NONE', *, *, #209, .F. ) ;
#233 = CIRCLE ( 'NONE', #12, 2.483999999999997765 ) ;
#234 = SHAPE_DEFINITION_REPRESENTATION ( #186, #172 ) ;
#235 = ORIENTED_EDGE ( 'NONE', *, *, #11, .F. ) ;
#236 = ORIENTED_EDGE ( 'NONE', *, *, #181, .F. ) ;
#237 = SECURITY_CLASSIFICATION ( '', '', #10 ) ;
#238 = DIRECTION ( 'NONE',  ( -1.745398759126286609E-30, 1.000000000000000000, -4.999020729993667215E-16 ) ) ;
#239 = PLANE ( 'NONE',  #103 ) ;
#240 = DIRECTION ( 'NONE',  ( -1.783268467025220108E-30, 1.000000000000000000, -5.019454502247710570E-16 ) ) ;
#241 = APPROVAL_PERSON_ORGANIZATION ( #41, #5, #165 ) ;
#242 = CARTESIAN_POINT ( 'NONE',  ( 4.592535983243924360E-14, 2.483999999999998209, 13.15354583784089293 ) ) ;
#243 = FACE_OUTER_BOUND ( 'NONE', #74, .T. ) ;
ENDSEC;
END-ISO-10303-21;
