ISO-10303-21;
HEADER;
FILE_DESCRIPTION (( 'STEP AP203' ),
    '1' );
FILE_NAME ('321399.step',
    '2021-11-26T10:03:25',
    ( '' ),
    ( '' ),
    'SwSTEP 2.0',
    'SolidWorks 2019',
    '' );
FILE_SCHEMA (( 'CONFIG_CONTROL_DESIGN' ));
ENDSEC;

DATA;
#1 = LOCAL_TIME ( 11, 3, 25.00000000000000000, #50 ) ;
#2 = DIRECTION ( 'NONE',  ( 3.491481338843133355E-15, 4.994120009416404827E-16, 1.000000000000000000 ) ) ;
#3 = CARTESIAN_POINT ( 'NONE',  ( 4.595559694780201864E-14, 6.573363681151408867E-15, 13.16220609187873691 ) ) ;
#4 = APPLICATION_CONTEXT ( 'configuration controlled 3d designs of mechanical parts and assemblies' ) ;
#5 = FACE_OUTER_BOUND ( 'NONE', #111, .T. ) ;
#6 = CARTESIAN_POINT ( 'NONE',  ( 4.595559694780201864E-14, 2.478999999999998760, 13.16220609187873691 ) ) ;
#7 = DIRECTION ( 'NONE',  ( 0.0000000000000000000, 1.000000000000000000, 0.0000000000000000000 ) ) ;
#8 = FACE_BOUND ( 'NONE', #230, .T. ) ;
#9 =( NAMED_UNIT ( * ) PLANE_ANGLE_UNIT ( ) SI_UNIT ( $, .RADIAN. ) );
#10 = CARTESIAN_POINT ( 'NONE',  ( 1.396592535537253145E-15, 2.478999999999999204, 0.3999999999999999112 ) ) ;
#11 = VERTEX_POINT ( 'NONE', #198 ) ;
#12 = PERSON_AND_ORGANIZATION ( #158, #83 ) ;
#13 = CLOSED_SHELL ( 'NONE', ( #217, #200, #58, #100, #113 ) ) ;
#14 = APPROVAL_ROLE ( '' ) ;
#15 = CALENDAR_DATE ( 2021, 26, 11 ) ;
#16 = ADVANCED_FACE ( 'NONE', ( #5 ), #37, .T. ) ;
#17 = EDGE_LOOP ( 'NONE', ( #48 ) ) ;
#18 = CC_DESIGN_DATE_AND_TIME_ASSIGNMENT ( #149, #132, ( #150 ) ) ;
#19 = DIRECTION ( 'NONE',  ( 0.0000000000000000000, 1.000000000000000000, 0.0000000000000000000 ) ) ;
#20 = CIRCLE ( 'NONE', #126, 2.478999999999992099 ) ;
#21 = SECURITY_CLASSIFICATION ( '', '', #108 ) ;
#22 = DIRECTION ( 'NONE',  ( 1.743687681682047135E-30, -1.000000000000000000, 4.994120009416404827E-16 ) ) ;
#23 = CARTESIAN_POINT ( 'NONE',  ( 4.595559694780201864E-14, -1.188780200060110141E-15, 13.16220609187873691 ) ) ;
#24 = FACE_OUTER_BOUND ( 'NONE', #94, .T. ) ;
#25 = ORIENTED_EDGE ( 'NONE', *, *, #91, .F. ) ;
#26 = DIRECTION ( 'NONE',  ( 3.491481338843133355E-15, -9.031770143711729009E-17, 1.000000000000000000 ) ) ;
#27 = AXIS2_PLACEMENT_3D ( 'NONE', #164, #124, #45 ) ;
#28 = DIRECTION ( 'NONE',  ( -1.743687681682047135E-30, 1.000000000000000000, -4.994120009416404827E-16 ) ) ;
#29 = DATE_AND_TIME ( #146, #140 ) ;
#30 = ADVANCED_FACE ( 'NONE', ( #226 ), #173, .T. ) ;
#31 = EDGE_CURVE ( 'NONE', #214, #214, #43, .T. ) ;
#32 = DATE_AND_TIME ( #15, #161 ) ;
#33 = APPROVAL_DATE_TIME ( #224, #163 ) ;
#34 = ORIENTED_EDGE ( 'NONE', *, *, #91, .T. ) ;
#35 = DIRECTION ( 'NONE',  ( 0.0000000000000000000, 1.000000000000000000, 0.0000000000000000000 ) ) ;
#36 = CYLINDRICAL_SURFACE ( 'NONE', #51, 1.999999999999993561 ) ;
#37 = PLANE ( 'NONE',  #205 ) ;
#38 = EDGE_LOOP ( 'NONE', ( #209 ) ) ;
#39 = AXIS2_PLACEMENT_3D ( 'NONE', #135, #175, #229 ) ;
#40 = CARTESIAN_POINT ( 'NONE',  ( 2.779219145719134403E-13, -7.189289034394536528E-15, 79.60000000000000853 ) ) ;
#41 = PERSON_AND_ORGANIZATION ( #158, #83 ) ;
#42 = DIRECTION ( 'NONE',  ( 1.000000000000000000, 0.0000000000000000000, 0.0000000000000000000 ) ) ;
#43 = CIRCLE ( 'NONE', #160, 2.478999999999999648 ) ;
#44 = CYLINDRICAL_SURFACE ( 'NONE', #27, 2.478999999999995651 ) ;
#45 = DIRECTION ( 'NONE',  ( -1.743687681682047135E-30, 1.000000000000000000, -4.994120009416404827E-16 ) ) ;
#46 = PRODUCT_RELATED_PRODUCT_CATEGORY ( 'detail', '', ( #240 ) ) ;
#47 = DATE_AND_TIME ( #166, #1 ) ;
#48 = ORIENTED_EDGE ( 'NONE', *, *, #112, .F. ) ;
#49 = EDGE_CURVE ( 'NONE', #11, #11, #89, .T. ) ;
#50 = COORDINATED_UNIVERSAL_TIME_OFFSET ( 1, 0, .AHEAD. ) ;
#51 = AXIS2_PLACEMENT_3D ( 'NONE', #118, #120, #212 ) ;
#52 = PERSON_AND_ORGANIZATION ( #158, #83 ) ;
#53 = CALENDAR_DATE ( 2021, 26, 11 ) ;
#54 = COORDINATED_UNIVERSAL_TIME_OFFSET ( 1, 0, .AHEAD. ) ;
#55 = DIRECTION ( 'NONE',  ( -3.491481338843133355E-15, 9.031770143711729009E-17, -1.000000000000000000 ) ) ;
#56 = DIRECTION ( 'NONE',  ( 1.743687681682047486E-30, -1.000000000000000000, 4.994120009416404827E-16 ) ) ;
#57 = DIRECTION ( 'NONE',  ( -3.491481338843133355E-15, 9.031770143711729009E-17, -1.000000000000000000 ) ) ;
#58 = ADVANCED_FACE ( 'NONE', ( #61, #24 ), #36, .T. ) ;
#59 = DIRECTION ( 'NONE',  ( -1.743687681682047135E-30, 1.000000000000000000, -4.994120009416404827E-16 ) ) ;
#60 = CC_DESIGN_PERSON_AND_ORGANIZATION_ASSIGNMENT ( #52, #242, ( #150 ) ) ;
#61 = FACE_OUTER_BOUND ( 'NONE', #243, .T. ) ;
#62 = PERSON_AND_ORGANIZATION_ROLE ( 'design_owner' ) ;
#63 = CARTESIAN_POINT ( 'NONE',  ( 4.595559694780201864E-14, 2.478999999999998760, 13.16220609187873691 ) ) ;
#64 = VERTEX_POINT ( 'NONE', #197 ) ;
#65 = CC_DESIGN_APPROVAL ( #169, ( #21 ) ) ;
#66 = APPROVAL_ROLE ( '' ) ;
#67 = APPROVAL_STATUS ( 'not_yet_approved' ) ;
#68 = CONICAL_SURFACE ( 'NONE', #129, 2.248059892324149267, 0.5235987755982979275 ) ;
#69 = ORIENTED_EDGE ( 'NONE', *, *, #31, .T. ) ;
#70 = CC_DESIGN_SECURITY_CLASSIFICATION ( #21, ( #87 ) ) ;
#71 = MANIFOLD_SOLID_BREP ( 'Corps-Déplacer/Copier1[1]', #13 ) ;
#72 = APPROVAL_DATE_TIME ( #32, #105 ) ;
#73 = APPROVAL_STATUS ( 'not_yet_approved' ) ;
#74 = UNCERTAINTY_MEASURE_WITH_UNIT (LENGTH_MEASURE( 1.000000000000000082E-05 ), #238, 'distance_accuracy_value', 'NONE');
#75 = EDGE_LOOP ( 'NONE', ( #133 ) ) ;
#76 = FACE_OUTER_BOUND ( 'NONE', #190, .T. ) ;
#77 = DIRECTION ( 'NONE',  ( -3.491481338843133355E-15, -4.994120009416404827E-16, -1.000000000000000000 ) ) ;
#78 = AXIS2_PLACEMENT_3D ( 'NONE', #40, #106, #159 ) ;
#79 = APPROVAL_PERSON_ORGANIZATION ( #41, #105, #66 ) ;
#80 = DIRECTION ( 'NONE',  ( -3.491481338843133355E-15, 9.031770143711729009E-17, -1.000000000000000000 ) ) ;
#81 = EDGE_LOOP ( 'NONE', ( #122 ) ) ;
#82 = CARTESIAN_POINT ( 'NONE',  ( 4.595559694780202495E-14, 6.573363681151410445E-15, 13.16220609187873869 ) ) ;
#83 = ORGANIZATION ( 'UNSPECIFIED', 'UNSPECIFIED', '' ) ;
#84 = FACE_OUTER_BOUND ( 'NONE', #17, .T. ) ;
#85 = AXIS2_PLACEMENT_3D ( 'NONE', #211, #96, #19 ) ;
#86 = APPROVAL_DATE_TIME ( #29, #169 ) ;
#87 = PRODUCT_DEFINITION_FORMATION_WITH_SPECIFIED_SOURCE ( 'ANY', '', #240, .NOT_KNOWN. ) ;
#88 = PERSON_AND_ORGANIZATION ( #158, #83 ) ;
#89 = CIRCLE ( 'NONE', #107, 1.999999999999991784 ) ;
#90 = EDGE_LOOP ( 'NONE', ( #25 ) ) ;
#91 = EDGE_CURVE ( 'NONE', #64, #64, #123, .T. ) ;
#92 = CARTESIAN_POINT ( 'NONE',  ( 4.595559694780201864E-14, -1.188780200060110141E-15, 13.16220609187873691 ) ) ;
#93 = AXIS2_PLACEMENT_3D ( 'NONE', #6, #80, #156 ) ;
#94 = EDGE_LOOP ( 'NONE', ( #115 ) ) ;
#95 = DIRECTION ( 'NONE',  ( 0.0000000000000000000, 1.000000000000000000, 0.0000000000000000000 ) ) ;
#96 = DIRECTION ( 'NONE',  ( -3.491481338843133355E-15, 9.031770143711729009E-17, -1.000000000000000000 ) ) ;
#97 = EDGE_LOOP ( 'NONE', ( #138 ) ) ;
#98 = VERTEX_POINT ( 'NONE', #63 ) ;
#99 = VERTEX_POINT ( 'NONE', #10 ) ;
#100 = ADVANCED_FACE ( 'NONE', ( #137, #187 ), #225, .T. ) ;
#101 = EDGE_CURVE ( 'NONE', #99, #99, #221, .T. ) ;
#102 = ADVANCED_FACE ( 'NONE', ( #76, #227 ), #68, .T. ) ;
#103 = CARTESIAN_POINT ( 'NONE',  ( 3.919914341929088744E-30, 5.606938932319449537E-31, 1.122708089062252252E-15 ) ) ;
#104 = PLANE ( 'NONE',  #155 ) ;
#105 = APPROVAL ( #67, 'UNSPECIFIED' ) ;
#106 = DIRECTION ( 'NONE',  ( -3.491481338843133355E-15, 9.031770143711729009E-17, -1.000000000000000000 ) ) ;
#107 = AXIS2_PLACEMENT_3D ( 'NONE', #154, #207, #95 ) ;
#108 = SECURITY_CLASSIFICATION_LEVEL ( 'unclassified' ) ;
#109 = PERSON_AND_ORGANIZATION_ROLE ( 'classification_officer' ) ;
#110 = PERSON_AND_ORGANIZATION ( #158, #83 ) ;
#111 = EDGE_LOOP ( 'NONE', ( #153 ) ) ;
#112 = EDGE_CURVE ( 'NONE', #232, #232, #241, .T. ) ;
#113 = ADVANCED_FACE ( 'NONE', ( #176 ), #119, .T. ) ;
#114 = CALENDAR_DATE ( 2021, 26, 11 ) ;
#115 = ORIENTED_EDGE ( 'NONE', *, *, #49, .F. ) ;
#116 = LOCAL_TIME ( 11, 3, 25.00000000000000000, #128 ) ;
#117 = ADVANCED_BREP_SHAPE_REPRESENTATION ( '321399', ( #71, #151, #189 ), #234 ) ;
#118 = CARTESIAN_POINT ( 'NONE',  ( 0.0000000000000000000, 0.0000000000000000000, 0.0000000000000000000 ) ) ;
#119 = PLANE ( 'NONE',  #93 ) ;
#120 = DIRECTION ( 'NONE',  ( -3.491481338843133355E-15, 9.031770143711729009E-17, -1.000000000000000000 ) ) ;
#121 = DIRECTION ( 'NONE',  ( -3.491481338843133355E-15, 9.031770143711729009E-17, -1.000000000000000000 ) ) ;
#122 = ORIENTED_EDGE ( 'NONE', *, *, #174, .T. ) ;
#123 = CIRCLE ( 'NONE', #85, 1.599999999999994982 ) ;
#124 = DIRECTION ( 'NONE',  ( -3.491481338843133355E-15, -4.994120009416404827E-16, -1.000000000000000000 ) ) ;
#125 = DIRECTION ( 'NONE',  ( -3.153425691349006731E-31, -1.000000000000000000, -9.031770143711729009E-17 ) ) ;
#126 = AXIS2_PLACEMENT_3D ( 'NONE', #82, #141, #236 ) ;
#127 = CC_DESIGN_PERSON_AND_ORGANIZATION_ASSIGNMENT ( #204, #130, ( #87 ) ) ;
#128 = COORDINATED_UNIVERSAL_TIME_OFFSET ( 1, 0, .AHEAD. ) ;
#129 = AXIS2_PLACEMENT_3D ( 'NONE', #208, #193, #56 ) ;
#130 = PERSON_AND_ORGANIZATION_ROLE ( 'creator' ) ;
#131 = PERSON_AND_ORGANIZATION_ROLE ( 'design_supplier' ) ;
#132 = DATE_TIME_ROLE ( 'creation_date' ) ;
#133 = ORIENTED_EDGE ( 'NONE', *, *, #174, .F. ) ;
#134 = CARTESIAN_POINT ( 'NONE',  ( 2.779219145719134403E-13, -7.189289034394536528E-15, 79.60000000000000853 ) ) ;
#135 = CARTESIAN_POINT ( 'NONE',  ( 1.396592535537257286E-15, 1.997648003766567650E-16, 0.4000000000000011324 ) ) ;
#136 = CIRCLE ( 'NONE', #233, 2.248059892324149267 ) ;
#137 = FACE_BOUND ( 'NONE', #192, .T. ) ;
#138 = ORIENTED_EDGE ( 'NONE', *, *, #101, .F. ) ;
#139 = VERTEX_POINT ( 'NONE', #231 ) ;
#140 = LOCAL_TIME ( 11, 3, 25.00000000000000000, #168 ) ;
#141 = DIRECTION ( 'NONE',  ( -3.491481338843133355E-15, -4.994120009416404827E-16, -1.000000000000000000 ) ) ;
#142 = DIRECTION ( 'NONE',  ( 0.0000000000000000000, 0.0000000000000000000, 1.000000000000000000 ) ) ;
#143 = FACE_OUTER_BOUND ( 'NONE', #97, .T. ) ;
#144 = CARTESIAN_POINT ( 'NONE',  ( 0.0000000000000000000, 0.0000000000000000000, 0.0000000000000000000 ) ) ;
#145 = APPROVAL_STATUS ( 'not_yet_approved' ) ;
#146 = CALENDAR_DATE ( 2021, 26, 11 ) ;
#147 = APPROVAL_PERSON_ORGANIZATION ( #222, #163, #239 ) ;
#148 = CC_DESIGN_PERSON_AND_ORGANIZATION_ASSIGNMENT ( #12, #62, ( #240 ) ) ;
#149 = DATE_AND_TIME ( #114, #116 ) ;
#150 = PRODUCT_DEFINITION ( 'UNKNOWN', '', #87, #162 ) ;
#151 = MANIFOLD_SOLID_BREP ( 'Corps-Déplacer/Copier1[2]', #188 ) ;
#152 = DIRECTION ( 'NONE',  ( 0.0000000000000000000, 1.000000000000000000, 0.0000000000000000000 ) ) ;
#153 = ORIENTED_EDGE ( 'NONE', *, *, #191, .F. ) ;
#154 = CARTESIAN_POINT ( 'NONE',  ( 4.885231259955590439E-14, -1.263712492114123682E-15, 13.99185842870425134 ) ) ;
#155 = AXIS2_PLACEMENT_3D ( 'NONE', #237, #26, #125 ) ;
#156 = DIRECTION ( 'NONE',  ( 3.153425691349006731E-31, 1.000000000000000000, 9.031770143711729009E-17 ) ) ;
#157 = FACE_OUTER_BOUND ( 'NONE', #171, .T. ) ;
#158 = PERSON ( 'UNSPECIFIED', 'UNSPECIFIED', 'UNSPECIFIED', ('UNSPECIFIED'), ('UNSPECIFIED'), ('UNSPECIFIED') ) ;
#159 = DIRECTION ( 'NONE',  ( 0.0000000000000000000, 1.000000000000000000, 0.0000000000000000000 ) ) ;
#160 = AXIS2_PLACEMENT_3D ( 'NONE', #23, #55, #7 ) ;
#161 = LOCAL_TIME ( 11, 3, 25.00000000000000000, #54 ) ;
#162 = DESIGN_CONTEXT ( 'detailed design', #235, 'design' ) ;
#163 = APPROVAL ( #145, 'UNSPECIFIED' ) ;
#164 = CARTESIAN_POINT ( 'NONE',  ( 0.0000000000000000000, 0.0000000000000000000, 0.0000000000000000000 ) ) ;
#165 = PRODUCT_DEFINITION_SHAPE ( 'NONE', 'NONE',  #150 ) ;
#166 = CALENDAR_DATE ( 2021, 26, 11 ) ;
#167 = ORIENTED_EDGE ( 'NONE', *, *, #112, .T. ) ;
#168 = COORDINATED_UNIVERSAL_TIME_OFFSET ( 1, 0, .AHEAD. ) ;
#169 = APPROVAL ( #73, 'UNSPECIFIED' ) ;
#170 = ORIENTED_EDGE ( 'NONE', *, *, #191, .T. ) ;
#171 = EDGE_LOOP ( 'NONE', ( #170 ) ) ;
#172 = CC_DESIGN_APPROVAL ( #163, ( #87 ) ) ;
#173 = PLANE ( 'NONE',  #178 ) ;
#174 = EDGE_CURVE ( 'NONE', #139, #139, #136, .T. ) ;
#175 = DIRECTION ( 'NONE',  ( -3.491481338843133355E-15, -4.994120009416404827E-16, -1.000000000000000000 ) ) ;
#176 = FACE_OUTER_BOUND ( 'NONE', #228, .T. ) ;
#177 = CARTESIAN_POINT ( 'NONE',  ( 2.779219145719134403E-13, 1.999999999999988010, 79.60000000000000853 ) ) ;
#178 = AXIS2_PLACEMENT_3D ( 'NONE', #194, #77, #59 ) ;
#179 = LOCAL_TIME ( 11, 3, 25.00000000000000000, #220 ) ;
#180 = CARTESIAN_POINT ( 'NONE',  ( 4.595559694780201864E-14, 2.478999999999998760, 13.16220609187873691 ) ) ;
#181 = ADVANCED_FACE ( 'NONE', ( #157, #143 ), #44, .T. ) ;
#182 = AXIS2_PLACEMENT_3D ( 'NONE', #134, #57, #35 ) ;
#183 = SHAPE_DEFINITION_REPRESENTATION ( #165, #117 ) ;
#184 = CC_DESIGN_PERSON_AND_ORGANIZATION_ASSIGNMENT ( #88, #109, ( #21 ) ) ;
#185 = CONICAL_SURFACE ( 'NONE', #78, 1.999999999999995337, 0.7853981633974516097 ) ;
#186 = ORIENTED_EDGE ( 'NONE', *, *, #101, .T. ) ;
#187 = FACE_OUTER_BOUND ( 'NONE', #38, .T. ) ;
#188 = CLOSED_SHELL ( 'NONE', ( #16, #181, #102, #30 ) ) ;
#189 = AXIS2_PLACEMENT_3D ( 'NONE', #144, #142, #42 ) ;
#190 = EDGE_LOOP ( 'NONE', ( #186 ) ) ;
#191 = EDGE_CURVE ( 'NONE', #98, #98, #20, .T. ) ;
#192 = EDGE_LOOP ( 'NONE', ( #223 ) ) ;
#193 = DIRECTION ( 'NONE',  ( 3.491481338843133355E-15, 4.994120009416404827E-16, 1.000000000000000000 ) ) ;
#194 = CARTESIAN_POINT ( 'NONE',  ( -1.959957170964544372E-30, 2.248059892324149267, -5.613540445311261261E-16 ) ) ;
#195 = CC_DESIGN_APPROVAL ( #105, ( #150 ) ) ;
#196 =( NAMED_UNIT ( * ) SI_UNIT ( $, .STERADIAN. ) SOLID_ANGLE_UNIT ( ) );
#197 = CARTESIAN_POINT ( 'NONE',  ( 2.793185071074506684E-13, 1.599999999999987876, 80.00000000000000000 ) ) ;
#198 = CARTESIAN_POINT ( 'NONE',  ( 4.885231259955590439E-14, 1.999999999999990452, 13.99185842870425134 ) ) ;
#199 = AXIS2_PLACEMENT_3D ( 'NONE', #92, #121, #152 ) ;
#200 = ADVANCED_FACE ( 'NONE', ( #8, #84 ), #185, .T. ) ;
#201 = DIRECTION ( 'NONE',  ( -3.491481338843133355E-15, -4.994120009416404827E-16, -1.000000000000000000 ) ) ;
#202 = MECHANICAL_CONTEXT ( 'NONE', #4, 'mechanical' ) ;
#203 = DATE_TIME_ROLE ( 'classification_date' ) ;
#204 = PERSON_AND_ORGANIZATION ( #158, #83 ) ;
#205 = AXIS2_PLACEMENT_3D ( 'NONE', #3, #2, #22 ) ;
#206 = PERSON_AND_ORGANIZATION ( #158, #83 ) ;
#207 = DIRECTION ( 'NONE',  ( -3.491481338843133355E-15, 9.031770143711729009E-17, -1.000000000000000000 ) ) ;
#208 = CARTESIAN_POINT ( 'NONE',  ( 3.919914341929088744E-30, 5.606938932319449537E-31, 1.122708089062252252E-15 ) ) ;
#209 = ORIENTED_EDGE ( 'NONE', *, *, #31, .F. ) ;
#210 = CC_DESIGN_PERSON_AND_ORGANIZATION_ASSIGNMENT ( #206, #131, ( #87 ) ) ;
#211 = CARTESIAN_POINT ( 'NONE',  ( 2.793185071074506684E-13, -7.225416114969383207E-15, 80.00000000000000000 ) ) ;
#212 = DIRECTION ( 'NONE',  ( 3.153425691349006731E-31, 1.000000000000000000, 9.031770143711729009E-17 ) ) ;
#213 = CC_DESIGN_DATE_AND_TIME_ASSIGNMENT ( #47, #203, ( #21 ) ) ;
#214 = VERTEX_POINT ( 'NONE', #180 ) ;
#215 = APPLICATION_PROTOCOL_DEFINITION ( 'international standard', 'config_control_design', 1994, #235 ) ;
#216 = FACE_OUTER_BOUND ( 'NONE', #90, .T. ) ;
#217 = ADVANCED_FACE ( 'NONE', ( #216 ), #104, .T. ) ;
#218 = APPROVAL_PERSON_ORGANIZATION ( #110, #169, #14 ) ;
#219 = APPLICATION_PROTOCOL_DEFINITION ( 'international standard', 'config_control_design', 1994, #4 ) ;
#220 = COORDINATED_UNIVERSAL_TIME_OFFSET ( 1, 0, .AHEAD. ) ;
#221 = CIRCLE ( 'NONE', #39, 2.478999999999999204 ) ;
#222 = PERSON_AND_ORGANIZATION ( #158, #83 ) ;
#223 = ORIENTED_EDGE ( 'NONE', *, *, #49, .T. ) ;
#224 = DATE_AND_TIME ( #53, #179 ) ;
#225 = CONICAL_SURFACE ( 'NONE', #199, 2.478999999999999648, 0.5235987755982939307 ) ;
#226 = FACE_OUTER_BOUND ( 'NONE', #81, .T. ) ;
#227 = FACE_BOUND ( 'NONE', #75, .T. ) ;
#228 = EDGE_LOOP ( 'NONE', ( #69 ) ) ;
#229 = DIRECTION ( 'NONE',  ( -1.709175424627640400E-30, 1.000000000000000000, -5.029578452433765913E-16 ) ) ;
#230 = EDGE_LOOP ( 'NONE', ( #34 ) ) ;
#231 = CARTESIAN_POINT ( 'NONE',  ( 6.842277657836020854E-46, 2.248059892324149267, 0.0000000000000000000 ) ) ;
#232 = VERTEX_POINT ( 'NONE', #177 ) ;
#233 = AXIS2_PLACEMENT_3D ( 'NONE', #103, #201, #28 ) ;
#234 =( GEOMETRIC_REPRESENTATION_CONTEXT ( 3 ) GLOBAL_UNCERTAINTY_ASSIGNED_CONTEXT ( ( #74 ) ) GLOBAL_UNIT_ASSIGNED_CONTEXT ( ( #238, #9, #196 ) ) REPRESENTATION_CONTEXT ( 'NONE', 'WORKASPACE' ) );
#235 = APPLICATION_CONTEXT ( 'configuration controlled 3d designs of mechanical parts and assemblies' ) ;
#236 = DIRECTION ( 'NONE',  ( -2.486073344912938529E-30, 1.000000000000000000, -6.997674368603520337E-16 ) ) ;
#237 = CARTESIAN_POINT ( 'NONE',  ( 2.793185071074506684E-13, -7.225416114969383207E-15, 80.00000000000000000 ) ) ;
#238 =( LENGTH_UNIT ( ) NAMED_UNIT ( * ) SI_UNIT ( .MILLI., .METRE. ) );
#239 = APPROVAL_ROLE ( '' ) ;
#240 = PRODUCT ( '321399', '321399', '', ( #202 ) ) ;
#241 = CIRCLE ( 'NONE', #182, 1.999999999999995337 ) ;
#242 = PERSON_AND_ORGANIZATION_ROLE ( 'creator' ) ;
#243 = EDGE_LOOP ( 'NONE', ( #167 ) ) ;
ENDSEC;
END-ISO-10303-21;
