ISO-10303-21;
HEADER;
FILE_DESCRIPTION (( 'STEP AP203' ),
    '1' );
FILE_NAME ('321398.step',
    '2021-11-26T10:03:24',
    ( '' ),
    ( '' ),
    'SwSTEP 2.0',
    'SolidWorks 2019',
    '' );
FILE_SCHEMA (( 'CONFIG_CONTROL_DESIGN' ));
ENDSEC;

DATA;
#1 = EDGE_LOOP ( 'NONE', ( #194 ) ) ;
#2 = EDGE_LOOP ( 'NONE', ( #144 ) ) ;
#3 = ORIENTED_EDGE ( 'NONE', *, *, #142, .T. ) ;
#4 = DATE_AND_TIME ( #173, #230 ) ;
#5 = EDGE_LOOP ( 'NONE', ( #3 ) ) ;
#6 = MECHANICAL_CONTEXT ( 'NONE', #210, 'mechanical' ) ;
#7 = PERSON_AND_ORGANIZATION ( #131, #27 ) ;
#8 = ADVANCED_FACE ( 'NONE', ( #39 ), #36, .T. ) ;
#9 = DIRECTION ( 'NONE',  ( -3.491481338843133355E-15, 9.031770143711729009E-17, -1.000000000000000000 ) ) ;
#10 = CARTESIAN_POINT ( 'NONE',  ( 1.396592535537253145E-15, 2.473999999999997979, 0.3999999999999999112 ) ) ;
#11 = EDGE_CURVE ( 'NONE', #31, #31, #234, .T. ) ;
#12 = FACE_OUTER_BOUND ( 'NONE', #5, .T. ) ;
#13 = CIRCLE ( 'NONE', #30, 1.599999999999994982 ) ;
#14 = DIRECTION ( 'NONE',  ( -3.491481338843133355E-15, 9.031770143711729009E-17, -1.000000000000000000 ) ) ;
#15 = DIRECTION ( 'NONE',  ( -3.491481338843133355E-15, -4.989225733591375255E-16, -1.000000000000000000 ) ) ;
#16 = ORIENTED_EDGE ( 'NONE', *, *, #100, .T. ) ;
#17 = APPROVAL_ROLE ( '' ) ;
#18 = CARTESIAN_POINT ( 'NONE',  ( 4.885231259955590439E-14, -1.263712492114123682E-15, 13.99185842870425134 ) ) ;
#19 = CC_DESIGN_APPROVAL ( #213, ( #101 ) ) ;
#20 = UNCERTAINTY_MEASURE_WITH_UNIT (LENGTH_MEASURE( 1.000000000000000082E-05 ), #126, 'distance_accuracy_value', 'NONE');
#21 = DIRECTION ( 'NONE',  ( 0.0000000000000000000, 1.000000000000000000, 0.0000000000000000000 ) ) ;
#22 = COORDINATED_UNIVERSAL_TIME_OFFSET ( 1, 0, .AHEAD. ) ;
#23 = DIRECTION ( 'NONE',  ( -3.491481338843133355E-15, -4.989225733591375255E-16, -1.000000000000000000 ) ) ;
#24 = DATE_TIME_ROLE ( 'creation_date' ) ;
#25 = AXIS2_PLACEMENT_3D ( 'NONE', #64, #48, #87 ) ;
#26 = PERSON_AND_ORGANIZATION ( #131, #27 ) ;
#27 = ORGANIZATION ( 'UNSPECIFIED', 'UNSPECIFIED', '' ) ;
#28 = EDGE_LOOP ( 'NONE', ( #171 ) ) ;
#29 =( NAMED_UNIT ( * ) PLANE_ANGLE_UNIT ( ) SI_UNIT ( $, .RADIAN. ) );
#30 = AXIS2_PLACEMENT_3D ( 'NONE', #32, #14, #62 ) ;
#31 = VERTEX_POINT ( 'NONE', #242 ) ;
#32 = CARTESIAN_POINT ( 'NONE',  ( 2.793185071074506684E-13, -7.225416114969383207E-15, 80.00000000000000000 ) ) ;
#33 = APPROVAL ( #78, 'UNSPECIFIED' ) ;
#34 = CARTESIAN_POINT ( 'NONE',  ( 2.779219145719134403E-13, -7.189289034394536528E-15, 79.60000000000000853 ) ) ;
#35 = VERTEX_POINT ( 'NONE', #109 ) ;
#36 = PLANE ( 'NONE',  #123 ) ;
#37 = COORDINATED_UNIVERSAL_TIME_OFFSET ( 1, 0, .AHEAD. ) ;
#38 = FACE_OUTER_BOUND ( 'NONE', #132, .T. ) ;
#39 = FACE_OUTER_BOUND ( 'NONE', #217, .T. ) ;
#40 = AXIS2_PLACEMENT_3D ( 'NONE', #85, #124, #162 ) ;
#41 = APPROVAL_DATE_TIME ( #4, #159 ) ;
#42 = APPROVAL_STATUS ( 'not_yet_approved' ) ;
#43 = EDGE_LOOP ( 'NONE', ( #76 ) ) ;
#44 = PLANE ( 'NONE',  #40 ) ;
#45 = CARTESIAN_POINT ( 'NONE',  ( 2.793185071074506684E-13, 1.599999999999987876, 80.00000000000000000 ) ) ;
#46 = CARTESIAN_POINT ( 'NONE',  ( 2.779219145719134403E-13, 1.999999999999988010, 79.60000000000000853 ) ) ;
#47 = CC_DESIGN_DATE_AND_TIME_ASSIGNMENT ( #187, #184, ( #101 ) ) ;
#48 = DIRECTION ( 'NONE',  ( -3.491481338843133355E-15, -4.989225733591375255E-16, -1.000000000000000000 ) ) ;
#49 = APPROVAL_PERSON_ORGANIZATION ( #190, #33, #17 ) ;
#50 = FACE_OUTER_BOUND ( 'NONE', #170, .T. ) ;
#51 = PERSON_AND_ORGANIZATION ( #131, #27 ) ;
#52 = ORIENTED_EDGE ( 'NONE', *, *, #121, .F. ) ;
#53 = EDGE_LOOP ( 'NONE', ( #205 ) ) ;
#54 = CARTESIAN_POINT ( 'NONE',  ( 0.0000000000000000000, 0.0000000000000000000, 0.0000000000000000000 ) ) ;
#55 = ADVANCED_FACE ( 'NONE', ( #38 ), #95, .T. ) ;
#56 = ORIENTED_EDGE ( 'NONE', *, *, #177, .T. ) ;
#57 = CIRCLE ( 'NONE', #25, 2.243059892324148041 ) ;
#58 = APPLICATION_PROTOCOL_DEFINITION ( 'international standard', 'config_control_design', 1994, #165 ) ;
#59 = PERSON_AND_ORGANIZATION ( #131, #27 ) ;
#60 = AXIS2_PLACEMENT_3D ( 'NONE', #198, #196, #239 ) ;
#61 = AXIS2_PLACEMENT_3D ( 'NONE', #54, #98, #138 ) ;
#62 = DIRECTION ( 'NONE',  ( 0.0000000000000000000, 1.000000000000000000, 0.0000000000000000000 ) ) ;
#63 = VERTEX_POINT ( 'NONE', #45 ) ;
#64 = CARTESIAN_POINT ( 'NONE',  ( 3.907362901606131692E-30, 5.583508444479600211E-31, 1.119113213677033885E-15 ) ) ;
#65 = VERTEX_POINT ( 'NONE', #164 ) ;
#66 = ORIENTED_EDGE ( 'NONE', *, *, #142, .F. ) ;
#67 = DESIGN_CONTEXT ( 'detailed design', #165, 'design' ) ;
#68 = LOCAL_TIME ( 11, 3, 24.00000000000000000, #157 ) ;
#69 = DIRECTION ( 'NONE',  ( 3.491481338843133355E-15, 4.989225733591375255E-16, 1.000000000000000000 ) ) ;
#70 = PERSON_AND_ORGANIZATION_ROLE ( 'design_owner' ) ;
#71 = ADVANCED_FACE ( 'NONE', ( #149, #50 ), #80, .T. ) ;
#72 = DIRECTION ( 'NONE',  ( -3.491481338843133355E-15, -4.989225733591375255E-16, -1.000000000000000000 ) ) ;
#73 = DIRECTION ( 'NONE',  ( 1.741978854411022803E-30, -1.000000000000000000, 4.989225733591375255E-16 ) ) ;
#74 = PRODUCT_DEFINITION ( 'UNKNOWN', '', #140, #67 ) ;
#75 = PERSON_AND_ORGANIZATION_ROLE ( 'classification_officer' ) ;
#76 = ORIENTED_EDGE ( 'NONE', *, *, #111, .T. ) ;
#77 = AXIS2_PLACEMENT_3D ( 'NONE', #243, #127, #104 ) ;
#78 = APPROVAL_STATUS ( 'not_yet_approved' ) ;
#79 = SECURITY_CLASSIFICATION_LEVEL ( 'unclassified' ) ;
#80 = CONICAL_SURFACE ( 'NONE', #181, 2.473999999999999755, 0.5235987755982932645 ) ;
#81 = AXIS2_PLACEMENT_3D ( 'NONE', #178, #150, #219 ) ;
#82 = VERTEX_POINT ( 'NONE', #10 ) ;
#83 = FACE_OUTER_BOUND ( 'NONE', #93, .T. ) ;
#84 = CC_DESIGN_APPROVAL ( #33, ( #74 ) ) ;
#85 = CARTESIAN_POINT ( 'NONE',  ( 4.598583406316478106E-14, 2.473999999999998423, 13.17086634591657734 ) ) ;
#86 = ADVANCED_FACE ( 'NONE', ( #229, #137 ), #96, .T. ) ;
#87 = DIRECTION ( 'NONE',  ( -1.741978854411022803E-30, 1.000000000000000000, -4.989225733591375255E-16 ) ) ;
#88 = CARTESIAN_POINT ( 'NONE',  ( 1.396592535537257286E-15, 1.995690293436555821E-16, 0.4000000000000011324 ) ) ;
#89 = DIRECTION ( 'NONE',  ( 3.153425691349006731E-31, 1.000000000000000000, 9.031770143711729009E-17 ) ) ;
#90 = AXIS2_PLACEMENT_3D ( 'NONE', #223, #72, #113 ) ;
#91 = ADVANCED_FACE ( 'NONE', ( #166, #185 ), #158, .T. ) ;
#92 = CLOSED_SHELL ( 'NONE', ( #8, #208, #91, #55 ) ) ;
#93 = EDGE_LOOP ( 'NONE', ( #169 ) ) ;
#94 = COORDINATED_UNIVERSAL_TIME_OFFSET ( 1, 0, .AHEAD. ) ;
#95 = PLANE ( 'NONE',  #90 ) ;
#96 = CYLINDRICAL_SURFACE ( 'NONE', #97, 1.999999999999993561 ) ;
#97 = AXIS2_PLACEMENT_3D ( 'NONE', #153, #183, #89 ) ;
#98 = DIRECTION ( 'NONE',  ( 0.0000000000000000000, 0.0000000000000000000, 1.000000000000000000 ) ) ;
#99 = AXIS2_PLACEMENT_3D ( 'NONE', #189, #23, #148 ) ;
#100 = EDGE_CURVE ( 'NONE', #65, #65, #106, .T. ) ;
#101 = SECURITY_CLASSIFICATION ( '', '', #79 ) ;
#102 = PRODUCT ( '321398', '321398', '', ( #6 ) ) ;
#103 = DIRECTION ( 'NONE',  ( 0.0000000000000000000, 1.000000000000000000, 0.0000000000000000000 ) ) ;
#104 = DIRECTION ( 'NONE',  ( 0.0000000000000000000, 1.000000000000000000, 0.0000000000000000000 ) ) ;
#105 = ADVANCED_FACE ( 'NONE', ( #220, #83 ), #136, .T. ) ;
#106 = CIRCLE ( 'NONE', #99, 2.473999999999991761 ) ;
#107 = APPROVAL_PERSON_ORGANIZATION ( #233, #159, #204 ) ;
#108 = DIRECTION ( 'NONE',  ( -3.491481338843133355E-15, 9.031770143711729009E-17, -1.000000000000000000 ) ) ;
#109 = CARTESIAN_POINT ( 'NONE',  ( 0.0000000000000000000, 2.243059892324148041, 0.0000000000000000000 ) ) ;
#110 = DIRECTION ( 'NONE',  ( 0.0000000000000000000, 1.000000000000000000, 0.0000000000000000000 ) ) ;
#111 = EDGE_CURVE ( 'NONE', #241, #241, #143, .T. ) ;
#112 = DATE_AND_TIME ( #168, #176 ) ;
#113 = DIRECTION ( 'NONE',  ( -1.741978854411022803E-30, 1.000000000000000000, -4.989225733591375255E-16 ) ) ;
#114 = PERSON_AND_ORGANIZATION ( #131, #27 ) ;
#115 = APPROVAL_PERSON_ORGANIZATION ( #51, #213, #202 ) ;
#116 = DIRECTION ( 'NONE',  ( -3.491481338843133355E-15, 9.031770143711729009E-17, -1.000000000000000000 ) ) ;
#117 = PERSON_AND_ORGANIZATION ( #131, #27 ) ;
#118 = DIRECTION ( 'NONE',  ( 3.491481338843133355E-15, 4.989225733591375255E-16, 1.000000000000000000 ) ) ;
#119 = CC_DESIGN_PERSON_AND_ORGANIZATION_ASSIGNMENT ( #59, #139, ( #140 ) ) ;
#120 = CLOSED_SHELL ( 'NONE', ( #146, #105, #86, #71, #235 ) ) ;
#121 = EDGE_CURVE ( 'NONE', #82, #82, #192, .T. ) ;
#122 = CC_DESIGN_PERSON_AND_ORGANIZATION_ASSIGNMENT ( #114, #70, ( #102 ) ) ;
#123 = AXIS2_PLACEMENT_3D ( 'NONE', #156, #69, #73 ) ;
#124 = DIRECTION ( 'NONE',  ( -3.491481338843133355E-15, 9.031770143711729009E-17, -1.000000000000000000 ) ) ;
#125 = CYLINDRICAL_SURFACE ( 'NONE', #60, 2.473999999999994870 ) ;
#126 =( LENGTH_UNIT ( ) NAMED_UNIT ( * ) SI_UNIT ( .MILLI., .METRE. ) );
#127 = DIRECTION ( 'NONE',  ( -3.491481338843133355E-15, 9.031770143711729009E-17, -1.000000000000000000 ) ) ;
#128 = VERTEX_POINT ( 'NONE', #200 ) ;
#129 = ORIENTED_EDGE ( 'NONE', *, *, #215, .F. ) ;
#130 = APPROVAL_STATUS ( 'not_yet_approved' ) ;
#131 = PERSON ( 'UNSPECIFIED', 'UNSPECIFIED', 'UNSPECIFIED', ('UNSPECIFIED'), ('UNSPECIFIED'), ('UNSPECIFIED') ) ;
#132 = EDGE_LOOP ( 'NONE', ( #227 ) ) ;
#133 = EDGE_LOOP ( 'NONE', ( #56 ) ) ;
#134 = MANIFOLD_SOLID_BREP ( 'Corps-Déplacer/Copier1[1]', #120 ) ;
#135 = PERSON_AND_ORGANIZATION_ROLE ( 'design_supplier' ) ;
#136 = CONICAL_SURFACE ( 'NONE', #77, 1.999999999999995337, 0.7853981633974516097 ) ;
#137 = FACE_OUTER_BOUND ( 'NONE', #2, .T. ) ;
#138 = DIRECTION ( 'NONE',  ( 1.000000000000000000, 0.0000000000000000000, 0.0000000000000000000 ) ) ;
#139 = PERSON_AND_ORGANIZATION_ROLE ( 'creator' ) ;
#140 = PRODUCT_DEFINITION_FORMATION_WITH_SPECIFIED_SOURCE ( 'ANY', '', #102, .NOT_KNOWN. ) ;
#141 = CC_DESIGN_DATE_AND_TIME_ASSIGNMENT ( #231, #24, ( #74 ) ) ;
#142 = EDGE_CURVE ( 'NONE', #128, #128, #216, .T. ) ;
#143 = CIRCLE ( 'NONE', #186, 1.999999999999995337 ) ;
#144 = ORIENTED_EDGE ( 'NONE', *, *, #11, .F. ) ;
#145 = CC_DESIGN_PERSON_AND_ORGANIZATION_ASSIGNMENT ( #26, #75, ( #101 ) ) ;
#146 = ADVANCED_FACE ( 'NONE', ( #180 ), #238, .T. ) ;
#147 = DIRECTION ( 'NONE',  ( 0.0000000000000000000, 1.000000000000000000, 0.0000000000000000000 ) ) ;
#148 = DIRECTION ( 'NONE',  ( -2.491097745367491848E-30, 1.000000000000000000, -7.011816798612824384E-16 ) ) ;
#149 = FACE_BOUND ( 'NONE', #1, .T. ) ;
#150 = DIRECTION ( 'NONE',  ( 3.491481338843133355E-15, -9.031770143711729009E-17, 1.000000000000000000 ) ) ;
#151 = CARTESIAN_POINT ( 'NONE',  ( 3.907362901606131692E-30, 5.583508444479600211E-31, 1.119113213677033885E-15 ) ) ;
#152 = SHAPE_DEFINITION_REPRESENTATION ( #236, #195 ) ;
#153 = CARTESIAN_POINT ( 'NONE',  ( 0.0000000000000000000, 0.0000000000000000000, 0.0000000000000000000 ) ) ;
#154 = DIRECTION ( 'NONE',  ( -3.491481338843133355E-15, 9.031770143711729009E-17, -1.000000000000000000 ) ) ;
#155 = APPROVAL_DATE_TIME ( #211, #33 ) ;
#156 = CARTESIAN_POINT ( 'NONE',  ( 4.598583406316478106E-14, 6.571242530673960356E-15, 13.17086634591657734 ) ) ;
#157 = COORDINATED_UNIVERSAL_TIME_OFFSET ( 1, 0, .AHEAD. ) ;
#158 = CONICAL_SURFACE ( 'NONE', #199, 2.243059892324148041, 0.5235987755982979275 ) ;
#159 = APPROVAL ( #42, 'UNSPECIFIED' ) ;
#160 = FACE_OUTER_BOUND ( 'NONE', #188, .T. ) ;
#161 = FACE_OUTER_BOUND ( 'NONE', #237, .T. ) ;
#162 = DIRECTION ( 'NONE',  ( 3.153425691349006731E-31, 1.000000000000000000, 9.031770143711729009E-17 ) ) ;
#163 = PRODUCT_RELATED_PRODUCT_CATEGORY ( 'detail', '', ( #102 ) ) ;
#164 = CARTESIAN_POINT ( 'NONE',  ( 4.598583406316478737E-14, 2.473999999999998423, 13.17086634591657912 ) ) ;
#165 = APPLICATION_CONTEXT ( 'configuration controlled 3d designs of mechanical parts and assemblies' ) ;
#166 = FACE_OUTER_BOUND ( 'NONE', #28, .T. ) ;
#167 =( GEOMETRIC_REPRESENTATION_CONTEXT ( 3 ) GLOBAL_UNCERTAINTY_ASSIGNED_CONTEXT ( ( #20 ) ) GLOBAL_UNIT_ASSIGNED_CONTEXT ( ( #126, #29, #197 ) ) REPRESENTATION_CONTEXT ( 'NONE', 'WORKASPACE' ) );
#168 = CALENDAR_DATE ( 2021, 26, 11 ) ;
#169 = ORIENTED_EDGE ( 'NONE', *, *, #111, .F. ) ;
#170 = EDGE_LOOP ( 'NONE', ( #66 ) ) ;
#171 = ORIENTED_EDGE ( 'NONE', *, *, #121, .T. ) ;
#172 = AXIS2_PLACEMENT_3D ( 'NONE', #18, #116, #21 ) ;
#173 = CALENDAR_DATE ( 2021, 26, 11 ) ;
#174 = AXIS2_PLACEMENT_3D ( 'NONE', #88, #15, #182 ) ;
#175 = COORDINATED_UNIVERSAL_TIME_OFFSET ( 1, 0, .AHEAD. ) ;
#176 = LOCAL_TIME ( 11, 3, 24.00000000000000000, #37 ) ;
#177 = EDGE_CURVE ( 'NONE', #63, #63, #13, .T. ) ;
#178 = CARTESIAN_POINT ( 'NONE',  ( 2.793185071074506684E-13, -7.225416114969383207E-15, 80.00000000000000000 ) ) ;
#179 = CC_DESIGN_PERSON_AND_ORGANIZATION_ASSIGNMENT ( #7, #228, ( #74 ) ) ;
#180 = FACE_OUTER_BOUND ( 'NONE', #53, .T. ) ;
#181 = AXIS2_PLACEMENT_3D ( 'NONE', #201, #154, #110 ) ;
#182 = DIRECTION ( 'NONE',  ( -1.712629699940146507E-30, 1.000000000000000000, -5.039743324002955663E-16 ) ) ;
#183 = DIRECTION ( 'NONE',  ( -3.491481338843133355E-15, 9.031770143711729009E-17, -1.000000000000000000 ) ) ;
#184 = DATE_TIME_ROLE ( 'classification_date' ) ;
#185 = FACE_BOUND ( 'NONE', #203, .T. ) ;
#186 = AXIS2_PLACEMENT_3D ( 'NONE', #34, #9, #103 ) ;
#187 = DATE_AND_TIME ( #212, #218 ) ;
#188 = EDGE_LOOP ( 'NONE', ( #16 ) ) ;
#189 = CARTESIAN_POINT ( 'NONE',  ( 4.598583406316479369E-14, 6.571242530673961145E-15, 13.17086634591658090 ) ) ;
#190 = PERSON_AND_ORGANIZATION ( #131, #27 ) ;
#191 = CALENDAR_DATE ( 2021, 26, 11 ) ;
#192 = CIRCLE ( 'NONE', #174, 2.473999999999997979 ) ;
#193 = LOCAL_TIME ( 11, 3, 24.00000000000000000, #94 ) ;
#194 = ORIENTED_EDGE ( 'NONE', *, *, #11, .T. ) ;
#195 = ADVANCED_BREP_SHAPE_REPRESENTATION ( '321398', ( #134, #222, #61 ), #167 ) ;
#196 = DIRECTION ( 'NONE',  ( -3.491481338843133355E-15, -4.989225733591375255E-16, -1.000000000000000000 ) ) ;
#197 =( NAMED_UNIT ( * ) SI_UNIT ( $, .STERADIAN. ) SOLID_ANGLE_UNIT ( ) );
#198 = CARTESIAN_POINT ( 'NONE',  ( 0.0000000000000000000, 0.0000000000000000000, 0.0000000000000000000 ) ) ;
#199 = AXIS2_PLACEMENT_3D ( 'NONE', #151, #118, #225 ) ;
#200 = CARTESIAN_POINT ( 'NONE',  ( 4.598583406316478737E-14, 2.473999999999998423, 13.17086634591657912 ) ) ;
#201 = CARTESIAN_POINT ( 'NONE',  ( 4.598583406316478737E-14, -1.189562374298669634E-15, 13.17086634591657912 ) ) ;
#202 = APPROVAL_ROLE ( '' ) ;
#203 = EDGE_LOOP ( 'NONE', ( #129 ) ) ;
#204 = APPROVAL_ROLE ( '' ) ;
#205 = ORIENTED_EDGE ( 'NONE', *, *, #177, .F. ) ;
#206 = CC_DESIGN_SECURITY_CLASSIFICATION ( #101, ( #140 ) ) ;
#207 = APPLICATION_PROTOCOL_DEFINITION ( 'international standard', 'config_control_design', 1994, #210 ) ;
#208 = ADVANCED_FACE ( 'NONE', ( #160, #161 ), #125, .T. ) ;
#209 = ORIENTED_EDGE ( 'NONE', *, *, #100, .F. ) ;
#210 = APPLICATION_CONTEXT ( 'configuration controlled 3d designs of mechanical parts and assemblies' ) ;
#211 = DATE_AND_TIME ( #191, #193 ) ;
#212 = CALENDAR_DATE ( 2021, 26, 11 ) ;
#213 = APPROVAL ( #130, 'UNSPECIFIED' ) ;
#214 = CC_DESIGN_APPROVAL ( #159, ( #140 ) ) ;
#215 = EDGE_CURVE ( 'NONE', #35, #35, #57, .T. ) ;
#216 = CIRCLE ( 'NONE', #240, 2.473999999999999755 ) ;
#217 = EDGE_LOOP ( 'NONE', ( #209 ) ) ;
#218 = LOCAL_TIME ( 11, 3, 24.00000000000000000, #22 ) ;
#219 = DIRECTION ( 'NONE',  ( -3.153425691349006731E-31, -1.000000000000000000, -9.031770143711729009E-17 ) ) ;
#220 = FACE_BOUND ( 'NONE', #133, .T. ) ;
#221 = CARTESIAN_POINT ( 'NONE',  ( 4.598583406316478737E-14, -1.189562374298669634E-15, 13.17086634591657912 ) ) ;
#222 = MANIFOLD_SOLID_BREP ( 'Corps-Déplacer/Copier1[2]', #92 ) ;
#223 = CARTESIAN_POINT ( 'NONE',  ( -1.953681450803065846E-30, 2.243059892324148041, -5.595566068385169427E-16 ) ) ;
#224 = CALENDAR_DATE ( 2021, 26, 11 ) ;
#225 = DIRECTION ( 'NONE',  ( 1.741978854411022803E-30, -1.000000000000000000, 4.989225733591375255E-16 ) ) ;
#226 = APPROVAL_DATE_TIME ( #112, #213 ) ;
#227 = ORIENTED_EDGE ( 'NONE', *, *, #215, .T. ) ;
#228 = PERSON_AND_ORGANIZATION_ROLE ( 'creator' ) ;
#229 = FACE_OUTER_BOUND ( 'NONE', #43, .T. ) ;
#230 = LOCAL_TIME ( 11, 3, 24.00000000000000000, #175 ) ;
#231 = DATE_AND_TIME ( #224, #68 ) ;
#232 = CC_DESIGN_PERSON_AND_ORGANIZATION_ASSIGNMENT ( #117, #135, ( #140 ) ) ;
#233 = PERSON_AND_ORGANIZATION ( #131, #27 ) ;
#234 = CIRCLE ( 'NONE', #172, 1.999999999999991784 ) ;
#235 = ADVANCED_FACE ( 'NONE', ( #12 ), #44, .T. ) ;
#236 = PRODUCT_DEFINITION_SHAPE ( 'NONE', 'NONE',  #74 ) ;
#237 = EDGE_LOOP ( 'NONE', ( #52 ) ) ;
#238 = PLANE ( 'NONE',  #81 ) ;
#239 = DIRECTION ( 'NONE',  ( -1.741978854411022453E-30, 1.000000000000000000, -4.989225733591376241E-16 ) ) ;
#240 = AXIS2_PLACEMENT_3D ( 'NONE', #221, #108, #147 ) ;
#241 = VERTEX_POINT ( 'NONE', #46 ) ;
#242 = CARTESIAN_POINT ( 'NONE',  ( 4.885231259955590439E-14, 1.999999999999990452, 13.99185842870425134 ) ) ;
#243 = CARTESIAN_POINT ( 'NONE',  ( 2.779219145719134403E-13, -7.189289034394536528E-15, 79.60000000000000853 ) ) ;
ENDSEC;
END-ISO-10303-21;
