ISO-10303-21;
HEADER;
FILE_DESCRIPTION (( 'STEP AP203' ),
    '1' );
FILE_NAME ('321397.step',
    '2021-11-26T10:03:23',
    ( '' ),
    ( '' ),
    'SwSTEP 2.0',
    'SolidWorks 2019',
    '' );
FILE_SCHEMA (( 'CONFIG_CONTROL_DESIGN' ));
ENDSEC;

DATA;
#1 = DATE_AND_TIME ( #180, #182 ) ;
#2 = LOCAL_TIME ( 11, 3, 23.00000000000000000, #156 ) ;
#3 = DATE_AND_TIME ( #177, #2 ) ;
#4 = PERSON_AND_ORGANIZATION ( #45, #176 ) ;
#5 = APPROVAL_STATUS ( 'not_yet_approved' ) ;
#6 = AXIS2_PLACEMENT_3D ( 'NONE', #33, #48, #243 ) ;
#7 = ORIENTED_EDGE ( 'NONE', *, *, #78, .T. ) ;
#8 = CARTESIAN_POINT ( 'NONE',  ( 2.793185071074506684E-13, -7.225416114969383207E-15, 80.00000000000000000 ) ) ;
#9 = EDGE_LOOP ( 'NONE', ( #22 ) ) ;
#10 = DIRECTION ( 'NONE',  ( -3.491481338843133355E-15, 9.031770143711729009E-17, -1.000000000000000000 ) ) ;
#11 = ADVANCED_FACE ( 'NONE', ( #37 ), #218, .T. ) ;
#12 = EDGE_CURVE ( 'NONE', #221, #221, #234, .T. ) ;
#13 = CARTESIAN_POINT ( 'NONE',  ( 3.894833575650815452E-30, 5.560151890162667422E-31, 1.115524672098441970E-15 ) ) ;
#14 = FACE_OUTER_BOUND ( 'NONE', #232, .T. ) ;
#15 =( GEOMETRIC_REPRESENTATION_CONTEXT ( 3 ) GLOBAL_UNCERTAINTY_ASSIGNED_CONTEXT ( ( #50 ) ) GLOBAL_UNIT_ASSIGNED_CONTEXT ( ( #103, #239, #215 ) ) REPRESENTATION_CONTEXT ( 'NONE', 'WORKASPACE' ) );
#16 = CIRCLE ( 'NONE', #113, 1.599999999999994982 ) ;
#17 = ADVANCED_FACE ( 'NONE', ( #99, #118 ), #216, .T. ) ;
#18 = DIRECTION ( 'NONE',  ( 0.0000000000000000000, 1.000000000000000000, 0.0000000000000000000 ) ) ;
#19 = DATE_TIME_ROLE ( 'creation_date' ) ;
#20 = EDGE_LOOP ( 'NONE', ( #220 ) ) ;
#21 = COORDINATED_UNIVERSAL_TIME_OFFSET ( 1, 0, .AHEAD. ) ;
#22 = ORIENTED_EDGE ( 'NONE', *, *, #94, .T. ) ;
#23 = CIRCLE ( 'NONE', #203, 2.468999999999999417 ) ;
#24 = EDGE_LOOP ( 'NONE', ( #235 ) ) ;
#25 = DIRECTION ( 'NONE',  ( -3.491481338843133355E-15, -4.984337889814057436E-16, -1.000000000000000000 ) ) ;
#26 = DIRECTION ( 'NONE',  ( -3.491481338843133355E-15, 9.031770143711729009E-17, -1.000000000000000000 ) ) ;
#27 = CYLINDRICAL_SURFACE ( 'NONE', #162, 2.468999999999994532 ) ;
#28 = CIRCLE ( 'NONE', #231, 2.468999999999991424 ) ;
#29 = CALENDAR_DATE ( 2021, 26, 11 ) ;
#30 = CC_DESIGN_DATE_AND_TIME_ASSIGNMENT ( #3, #230, ( #173 ) ) ;
#31 = PLANE ( 'NONE',  #219 ) ;
#32 = CC_DESIGN_APPROVAL ( #150, ( #91 ) ) ;
#33 = CARTESIAN_POINT ( 'NONE',  ( 4.601607117852756873E-14, -1.190344548537229522E-15, 13.17952659995442488 ) ) ;
#34 = PERSON_AND_ORGANIZATION ( #45, #176 ) ;
#35 = COORDINATED_UNIVERSAL_TIME_OFFSET ( 1, 0, .AHEAD. ) ;
#36 = APPROVAL_DATE_TIME ( #136, #172 ) ;
#37 = FACE_OUTER_BOUND ( 'NONE', #217, .T. ) ;
#38 = MANIFOLD_SOLID_BREP ( 'Corps-Déplacer/Copier1[2]', #126 ) ;
#39 = APPROVAL_ROLE ( '' ) ;
#40 = ORIENTED_EDGE ( 'NONE', *, *, #78, .F. ) ;
#41 = DIRECTION ( 'NONE',  ( 0.0000000000000000000, 1.000000000000000000, 0.0000000000000000000 ) ) ;
#42 = APPROVAL_PERSON_ORGANIZATION ( #159, #172, #198 ) ;
#43 = CARTESIAN_POINT ( 'NONE',  ( 4.601607117852757504E-14, 6.569121380196508690E-15, 13.17952659995442666 ) ) ;
#44 = ORIENTED_EDGE ( 'NONE', *, *, #69, .F. ) ;
#45 = PERSON ( 'UNSPECIFIED', 'UNSPECIFIED', 'UNSPECIFIED', ('UNSPECIFIED'), ('UNSPECIFIED'), ('UNSPECIFIED') ) ;
#46 = VERTEX_POINT ( 'NONE', #125 ) ;
#47 = DIRECTION ( 'NONE',  ( -3.491481338843133355E-15, -4.984337889814057436E-16, -1.000000000000000000 ) ) ;
#48 = DIRECTION ( 'NONE',  ( -3.491481338843133355E-15, 9.031770143711729009E-17, -1.000000000000000000 ) ) ;
#49 = DIRECTION ( 'NONE',  ( -1.716097965837149999E-30, 1.000000000000000000, -5.049949365566348155E-16 ) ) ;
#50 = UNCERTAINTY_MEASURE_WITH_UNIT (LENGTH_MEASURE( 1.000000000000000082E-05 ), #103, 'distance_accuracy_value', 'NONE');
#51 = EDGE_CURVE ( 'NONE', #241, #241, #101, .T. ) ;
#52 = CARTESIAN_POINT ( 'NONE',  ( 4.601607117852756873E-14, -1.190344548537229522E-15, 13.17952659995442488 ) ) ;
#53 = AXIS2_PLACEMENT_3D ( 'NONE', #43, #138, #137 ) ;
#54 = APPROVAL_ROLE ( '' ) ;
#55 = PERSON_AND_ORGANIZATION_ROLE ( 'design_owner' ) ;
#56 = APPLICATION_PROTOCOL_DEFINITION ( 'international standard', 'config_control_design', 1994, #63 ) ;
#57 = DIRECTION ( 'NONE',  ( -3.491481338843133355E-15, 9.031770143711729009E-17, -1.000000000000000000 ) ) ;
#58 = EDGE_CURVE ( 'NONE', #224, #224, #167, .T. ) ;
#59 = DIRECTION ( 'NONE',  ( -3.491481338843133355E-15, -4.984337889814057436E-16, -1.000000000000000000 ) ) ;
#60 = CONICAL_SURFACE ( 'NONE', #85, 1.999999999999995337, 0.7853981633974516097 ) ;
#61 = ORIENTED_EDGE ( 'NONE', *, *, #51, .F. ) ;
#62 = EDGE_LOOP ( 'NONE', ( #161 ) ) ;
#63 = APPLICATION_CONTEXT ( 'configuration controlled 3d designs of mechanical parts and assemblies' ) ;
#64 = CONICAL_SURFACE ( 'NONE', #6, 2.468999999999999417, 0.5235987755982933756 ) ;
#65 = DIRECTION ( 'NONE',  ( -1.740272272877454471E-30, 1.000000000000000000, -4.984337889814057436E-16 ) ) ;
#66 = CARTESIAN_POINT ( 'NONE',  ( 4.885231259955590439E-14, 1.999999999999990452, 13.99185842870425134 ) ) ;
#67 = CC_DESIGN_PERSON_AND_ORGANIZATION_ASSIGNMENT ( #92, #195, ( #173 ) ) ;
#68 = CONICAL_SURFACE ( 'NONE', #228, 2.238059892324147704, 0.5235987755982979275 ) ;
#69 = EDGE_CURVE ( 'NONE', #222, #222, #16, .T. ) ;
#70 = CARTESIAN_POINT ( 'NONE',  ( 2.779219145719134403E-13, 1.999999999999988010, 79.60000000000000853 ) ) ;
#71 = PERSON_AND_ORGANIZATION_ROLE ( 'creator' ) ;
#72 = CC_DESIGN_PERSON_AND_ORGANIZATION_ASSIGNMENT ( #112, #55, ( #124 ) ) ;
#73 = APPROVAL_DATE_TIME ( #160, #150 ) ;
#74 = PERSON_AND_ORGANIZATION ( #45, #176 ) ;
#75 = EDGE_LOOP ( 'NONE', ( #139 ) ) ;
#76 = AXIS2_PLACEMENT_3D ( 'NONE', #142, #202, #49 ) ;
#77 = APPLICATION_CONTEXT ( 'configuration controlled 3d designs of mechanical parts and assemblies' ) ;
#78 = EDGE_CURVE ( 'NONE', #185, #185, #28, .T. ) ;
#79 = EDGE_LOOP ( 'NONE', ( #44 ) ) ;
#80 = DIRECTION ( 'NONE',  ( -3.491481338843133355E-15, 9.031770143711729009E-17, -1.000000000000000000 ) ) ;
#81 = EDGE_LOOP ( 'NONE', ( #214 ) ) ;
#82 = AXIS2_PLACEMENT_3D ( 'NONE', #158, #211, #133 ) ;
#83 = DIRECTION ( 'NONE',  ( -3.491481338843133355E-15, 9.031770143711729009E-17, -1.000000000000000000 ) ) ;
#84 = FACE_OUTER_BOUND ( 'NONE', #79, .T. ) ;
#85 = AXIS2_PLACEMENT_3D ( 'NONE', #209, #83, #18 ) ;
#86 = APPROVAL_DATE_TIME ( #155, #196 ) ;
#87 = FACE_OUTER_BOUND ( 'NONE', #168, .T. ) ;
#88 = DIRECTION ( 'NONE',  ( 0.0000000000000000000, 1.000000000000000000, 0.0000000000000000000 ) ) ;
#89 = PERSON_AND_ORGANIZATION ( #45, #176 ) ;
#90 = CC_DESIGN_SECURITY_CLASSIFICATION ( #173, ( #157 ) ) ;
#91 = PRODUCT_DEFINITION ( 'UNKNOWN', '', #157, #208 ) ;
#92 = PERSON_AND_ORGANIZATION ( #45, #176 ) ;
#93 = EDGE_LOOP ( 'NONE', ( #61 ) ) ;
#94 = EDGE_CURVE ( 'NONE', #226, #226, #193, .T. ) ;
#95 = MECHANICAL_CONTEXT ( 'NONE', #63, 'mechanical' ) ;
#96 = EDGE_LOOP ( 'NONE', ( #237 ) ) ;
#97 = AXIS2_PLACEMENT_3D ( 'NONE', #200, #98, #164 ) ;
#98 = DIRECTION ( 'NONE',  ( -3.491481338843133355E-15, 9.031770143711729009E-17, -1.000000000000000000 ) ) ;
#99 = FACE_OUTER_BOUND ( 'NONE', #81, .T. ) ;
#100 = EDGE_LOOP ( 'NONE', ( #199 ) ) ;
#101 = CIRCLE ( 'NONE', #97, 1.999999999999991784 ) ;
#102 = CC_DESIGN_PERSON_AND_ORGANIZATION_ASSIGNMENT ( #4, #114, ( #157 ) ) ;
#103 =( LENGTH_UNIT ( ) NAMED_UNIT ( * ) SI_UNIT ( .MILLI., .METRE. ) );
#104 = FACE_OUTER_BOUND ( 'NONE', #62, .T. ) ;
#105 = ADVANCED_FACE ( 'NONE', ( #87, #14 ), #27, .T. ) ;
#106 = DIRECTION ( 'NONE',  ( -3.491481338843133355E-15, -4.984337889814057436E-16, -1.000000000000000000 ) ) ;
#107 = AXIS2_PLACEMENT_3D ( 'NONE', #191, #171, #127 ) ;
#108 = DIRECTION ( 'NONE',  ( 3.153425691349006731E-31, 1.000000000000000000, 9.031770143711729009E-17 ) ) ;
#109 = CARTESIAN_POINT ( 'NONE',  ( 0.0000000000000000000, 2.238059892324147704, 0.0000000000000000000 ) ) ;
#110 = APPLICATION_PROTOCOL_DEFINITION ( 'international standard', 'config_control_design', 1994, #77 ) ;
#111 = ADVANCED_FACE ( 'NONE', ( #174, #187 ), #60, .T. ) ;
#112 = PERSON_AND_ORGANIZATION ( #45, #176 ) ;
#113 = AXIS2_PLACEMENT_3D ( 'NONE', #8, #80, #197 ) ;
#114 = PERSON_AND_ORGANIZATION_ROLE ( 'design_supplier' ) ;
#115 = CARTESIAN_POINT ( 'NONE',  ( 0.0000000000000000000, 0.0000000000000000000, 0.0000000000000000000 ) ) ;
#116 = SECURITY_CLASSIFICATION_LEVEL ( 'unclassified' ) ;
#117 = DIRECTION ( 'NONE',  ( 3.153425691349006731E-31, 1.000000000000000000, 9.031770143711729009E-17 ) ) ;
#118 = FACE_OUTER_BOUND ( 'NONE', #93, .T. ) ;
#119 = CLOSED_SHELL ( 'NONE', ( #165, #111, #17, #154, #144 ) ) ;
#120 = DIRECTION ( 'NONE',  ( -2.496142495763133482E-30, 1.000000000000000000, -7.026016508614067399E-16 ) ) ;
#121 = CARTESIAN_POINT ( 'NONE',  ( 3.894833575650815452E-30, 5.560151890162667422E-31, 1.115524672098441970E-15 ) ) ;
#122 = EDGE_CURVE ( 'NONE', #46, #46, #23, .T. ) ;
#123 = CC_DESIGN_PERSON_AND_ORGANIZATION_ASSIGNMENT ( #89, #71, ( #157 ) ) ;
#124 = PRODUCT ( '321397', '321397', '', ( #95 ) ) ;
#125 = CARTESIAN_POINT ( 'NONE',  ( 4.601607117852756873E-14, 2.468999999999998085, 13.17952659995442488 ) ) ;
#126 = CLOSED_SHELL ( 'NONE', ( #11, #105, #141, #189 ) ) ;
#127 = DIRECTION ( 'NONE',  ( -3.153425691349006731E-31, -1.000000000000000000, -9.031770143711729009E-17 ) ) ;
#128 = CARTESIAN_POINT ( 'NONE',  ( -1.947416787825407726E-30, 2.238059892324147704, -5.577623360492209848E-16 ) ) ;
#129 = FACE_BOUND ( 'NONE', #75, .T. ) ;
#130 = DIRECTION ( 'NONE',  ( 3.491481338843133355E-15, 4.984337889814057436E-16, 1.000000000000000000 ) ) ;
#131 = AXIS2_PLACEMENT_3D ( 'NONE', #179, #57, #41 ) ;
#132 = COORDINATED_UNIVERSAL_TIME_OFFSET ( 1, 0, .AHEAD. ) ;
#133 = DIRECTION ( 'NONE',  ( 1.000000000000000000, 0.0000000000000000000, 0.0000000000000000000 ) ) ;
#134 = PERSON_AND_ORGANIZATION_ROLE ( 'creator' ) ;
#135 = AXIS2_PLACEMENT_3D ( 'NONE', #121, #25, #183 ) ;
#136 = DATE_AND_TIME ( #163, #188 ) ;
#137 = DIRECTION ( 'NONE',  ( 1.740272272877454471E-30, -1.000000000000000000, 4.984337889814057436E-16 ) ) ;
#138 = DIRECTION ( 'NONE',  ( 3.491481338843133355E-15, 4.984337889814057436E-16, 1.000000000000000000 ) ) ;
#139 = ORIENTED_EDGE ( 'NONE', *, *, #58, .F. ) ;
#140 = APPROVAL_PERSON_ORGANIZATION ( #74, #196, #54 ) ;
#141 = ADVANCED_FACE ( 'NONE', ( #148, #129 ), #68, .T. ) ;
#142 = CARTESIAN_POINT ( 'NONE',  ( 1.396592535537257286E-15, 1.993735155925628595E-16, 0.4000000000000011324 ) ) ;
#143 = CARTESIAN_POINT ( 'NONE',  ( 2.793185071074506684E-13, 1.599999999999987876, 80.00000000000000000 ) ) ;
#144 = ADVANCED_FACE ( 'NONE', ( #145 ), #31, .T. ) ;
#145 = FACE_OUTER_BOUND ( 'NONE', #96, .T. ) ;
#146 = CC_DESIGN_PERSON_AND_ORGANIZATION_ASSIGNMENT ( #229, #134, ( #91 ) ) ;
#147 = DIRECTION ( 'NONE',  ( 1.740272272877454471E-30, -1.000000000000000000, 4.984337889814057436E-16 ) ) ;
#148 = FACE_OUTER_BOUND ( 'NONE', #9, .T. ) ;
#149 = CC_DESIGN_APPROVAL ( #172, ( #157 ) ) ;
#150 = APPROVAL ( #212, 'UNSPECIFIED' ) ;
#151 = PRODUCT_RELATED_PRODUCT_CATEGORY ( 'detail', '', ( #124 ) ) ;
#152 = SHAPE_DEFINITION_REPRESENTATION ( #238, #194 ) ;
#153 = CARTESIAN_POINT ( 'NONE',  ( 4.601607117852756873E-14, 2.468999999999998085, 13.17952659995442488 ) ) ;
#154 = ADVANCED_FACE ( 'NONE', ( #242, #104 ), #64, .T. ) ;
#155 = DATE_AND_TIME ( #29, #207 ) ;
#156 = COORDINATED_UNIVERSAL_TIME_OFFSET ( 1, 0, .AHEAD. ) ;
#157 = PRODUCT_DEFINITION_FORMATION_WITH_SPECIFIED_SOURCE ( 'ANY', '', #124, .NOT_KNOWN. ) ;
#158 = CARTESIAN_POINT ( 'NONE',  ( 0.0000000000000000000, 0.0000000000000000000, 0.0000000000000000000 ) ) ;
#159 = PERSON_AND_ORGANIZATION ( #45, #176 ) ;
#160 = DATE_AND_TIME ( #178, #170 ) ;
#161 = ORIENTED_EDGE ( 'NONE', *, *, #122, .F. ) ;
#162 = AXIS2_PLACEMENT_3D ( 'NONE', #205, #106, #65 ) ;
#163 = CALENDAR_DATE ( 2021, 26, 11 ) ;
#164 = DIRECTION ( 'NONE',  ( 0.0000000000000000000, 1.000000000000000000, 0.0000000000000000000 ) ) ;
#165 = ADVANCED_FACE ( 'NONE', ( #84 ), #186, .T. ) ;
#166 = EDGE_LOOP ( 'NONE', ( #181 ) ) ;
#167 = CIRCLE ( 'NONE', #135, 2.238059892324147704 ) ;
#168 = EDGE_LOOP ( 'NONE', ( #7 ) ) ;
#169 = CARTESIAN_POINT ( 'NONE',  ( 4.601607117852757504E-14, 2.468999999999998085, 13.17952659995442666 ) ) ;
#170 = LOCAL_TIME ( 11, 3, 23.00000000000000000, #35 ) ;
#171 = DIRECTION ( 'NONE',  ( 3.491481338843133355E-15, -9.031770143711729009E-17, 1.000000000000000000 ) ) ;
#172 = APPROVAL ( #5, 'UNSPECIFIED' ) ;
#173 = SECURITY_CLASSIFICATION ( '', '', #116 ) ;
#174 = FACE_BOUND ( 'NONE', #100, .T. ) ;
#175 = DIRECTION ( 'NONE',  ( -3.491481338843133355E-15, 9.031770143711729009E-17, -1.000000000000000000 ) ) ;
#176 = ORGANIZATION ( 'UNSPECIFIED', 'UNSPECIFIED', '' ) ;
#177 = CALENDAR_DATE ( 2021, 26, 11 ) ;
#178 = CALENDAR_DATE ( 2021, 26, 11 ) ;
#179 = CARTESIAN_POINT ( 'NONE',  ( 2.779219145719134403E-13, -7.189289034394536528E-15, 79.60000000000000853 ) ) ;
#180 = CALENDAR_DATE ( 2021, 26, 11 ) ;
#181 = ORIENTED_EDGE ( 'NONE', *, *, #58, .T. ) ;
#182 = LOCAL_TIME ( 11, 3, 23.00000000000000000, #192 ) ;
#183 = DIRECTION ( 'NONE',  ( -1.740272272877454471E-30, 1.000000000000000000, -4.984337889814057436E-16 ) ) ;
#184 = ORIENTED_EDGE ( 'NONE', *, *, #94, .F. ) ;
#185 = VERTEX_POINT ( 'NONE', #153 ) ;
#186 = PLANE ( 'NONE',  #107 ) ;
#187 = FACE_OUTER_BOUND ( 'NONE', #24, .T. ) ;
#188 = LOCAL_TIME ( 11, 3, 23.00000000000000000, #21 ) ;
#189 = ADVANCED_FACE ( 'NONE', ( #204 ), #223, .T. ) ;
#190 = DIRECTION ( 'NONE',  ( -1.740272272877454471E-30, 1.000000000000000000, -4.984337889814057436E-16 ) ) ;
#191 = CARTESIAN_POINT ( 'NONE',  ( 2.793185071074506684E-13, -7.225416114969383207E-15, 80.00000000000000000 ) ) ;
#192 = COORDINATED_UNIVERSAL_TIME_OFFSET ( 1, 0, .AHEAD. ) ;
#193 = CIRCLE ( 'NONE', #76, 2.468999999999997641 ) ;
#194 = ADVANCED_BREP_SHAPE_REPRESENTATION ( '321397', ( #206, #38, #82 ), #15 ) ;
#195 = PERSON_AND_ORGANIZATION_ROLE ( 'classification_officer' ) ;
#196 = APPROVAL ( #227, 'UNSPECIFIED' ) ;
#197 = DIRECTION ( 'NONE',  ( 0.0000000000000000000, 1.000000000000000000, 0.0000000000000000000 ) ) ;
#198 = APPROVAL_ROLE ( '' ) ;
#199 = ORIENTED_EDGE ( 'NONE', *, *, #69, .T. ) ;
#200 = CARTESIAN_POINT ( 'NONE',  ( 4.885231259955590439E-14, -1.263712492114123682E-15, 13.99185842870425134 ) ) ;
#201 = AXIS2_PLACEMENT_3D ( 'NONE', #115, #10, #117 ) ;
#202 = DIRECTION ( 'NONE',  ( -3.491481338843133355E-15, -4.984337889814057436E-16, -1.000000000000000000 ) ) ;
#203 = AXIS2_PLACEMENT_3D ( 'NONE', #52, #26, #88 ) ;
#204 = FACE_OUTER_BOUND ( 'NONE', #166, .T. ) ;
#205 = CARTESIAN_POINT ( 'NONE',  ( 0.0000000000000000000, 0.0000000000000000000, 0.0000000000000000000 ) ) ;
#206 = MANIFOLD_SOLID_BREP ( 'Corps-Déplacer/Copier1[1]', #119 ) ;
#207 = LOCAL_TIME ( 11, 3, 23.00000000000000000, #132 ) ;
#208 = DESIGN_CONTEXT ( 'detailed design', #77, 'design' ) ;
#209 = CARTESIAN_POINT ( 'NONE',  ( 2.779219145719134403E-13, -7.189289034394536528E-15, 79.60000000000000853 ) ) ;
#210 = CARTESIAN_POINT ( 'NONE',  ( 1.396592535537253145E-15, 2.468999999999997641, 0.3999999999999999112 ) ) ;
#211 = DIRECTION ( 'NONE',  ( 0.0000000000000000000, 0.0000000000000000000, 1.000000000000000000 ) ) ;
#212 = APPROVAL_STATUS ( 'not_yet_approved' ) ;
#213 = CC_DESIGN_DATE_AND_TIME_ASSIGNMENT ( #1, #19, ( #91 ) ) ;
#214 = ORIENTED_EDGE ( 'NONE', *, *, #12, .T. ) ;
#215 =( NAMED_UNIT ( * ) SI_UNIT ( $, .STERADIAN. ) SOLID_ANGLE_UNIT ( ) );
#216 = CYLINDRICAL_SURFACE ( 'NONE', #201, 1.999999999999993561 ) ;
#217 = EDGE_LOOP ( 'NONE', ( #40 ) ) ;
#218 = PLANE ( 'NONE',  #53 ) ;
#219 = AXIS2_PLACEMENT_3D ( 'NONE', #169, #175, #108 ) ;
#220 = ORIENTED_EDGE ( 'NONE', *, *, #51, .T. ) ;
#221 = VERTEX_POINT ( 'NONE', #70 ) ;
#222 = VERTEX_POINT ( 'NONE', #143 ) ;
#223 = PLANE ( 'NONE',  #240 ) ;
#224 = VERTEX_POINT ( 'NONE', #109 ) ;
#225 = APPROVAL_PERSON_ORGANIZATION ( #34, #150, #39 ) ;
#226 = VERTEX_POINT ( 'NONE', #210 ) ;
#227 = APPROVAL_STATUS ( 'not_yet_approved' ) ;
#228 = AXIS2_PLACEMENT_3D ( 'NONE', #13, #130, #147 ) ;
#229 = PERSON_AND_ORGANIZATION ( #45, #176 ) ;
#230 = DATE_TIME_ROLE ( 'classification_date' ) ;
#231 = AXIS2_PLACEMENT_3D ( 'NONE', #233, #59, #120 ) ;
#232 = EDGE_LOOP ( 'NONE', ( #184 ) ) ;
#233 = CARTESIAN_POINT ( 'NONE',  ( 4.601607117852757504E-14, 6.569121380196508690E-15, 13.17952659995442666 ) ) ;
#234 = CIRCLE ( 'NONE', #131, 1.999999999999995337 ) ;
#235 = ORIENTED_EDGE ( 'NONE', *, *, #12, .F. ) ;
#236 = CC_DESIGN_APPROVAL ( #196, ( #173 ) ) ;
#237 = ORIENTED_EDGE ( 'NONE', *, *, #122, .T. ) ;
#238 = PRODUCT_DEFINITION_SHAPE ( 'NONE', 'NONE',  #91 ) ;
#239 =( NAMED_UNIT ( * ) PLANE_ANGLE_UNIT ( ) SI_UNIT ( $, .RADIAN. ) );
#240 = AXIS2_PLACEMENT_3D ( 'NONE', #128, #47, #190 ) ;
#241 = VERTEX_POINT ( 'NONE', #66 ) ;
#242 = FACE_BOUND ( 'NONE', #20, .T. ) ;
#243 = DIRECTION ( 'NONE',  ( 0.0000000000000000000, 1.000000000000000000, 0.0000000000000000000 ) ) ;
ENDSEC;
END-ISO-10303-21;
