ISO-10303-21;
HEADER;
FILE_DESCRIPTION (( 'STEP AP203' ),
    '1' );
FILE_NAME ('321396.step',
    '2021-11-26T10:03:23',
    ( '' ),
    ( '' ),
    'SwSTEP 2.0',
    'SolidWorks 2019',
    '' );
FILE_SCHEMA (( 'CONFIG_CONTROL_DESIGN' ));
ENDSEC;

DATA;
#1 = DIRECTION ( 'NONE',  ( -3.153425691349006731E-31, -1.000000000000000000, -9.031770143711729009E-17 ) ) ;
#2 = EDGE_LOOP ( 'NONE', ( #116 ) ) ;
#3 = PRODUCT_DEFINITION ( 'UNKNOWN', '', #225, #17 ) ;
#4 = CIRCLE ( 'NONE', #184, 2.233059892324149143 ) ;
#5 = ORIENTED_EDGE ( 'NONE', *, *, #79, .F. ) ;
#6 = CALENDAR_DATE ( 2021, 26, 11 ) ;
#7 = AXIS2_PLACEMENT_3D ( 'NONE', #169, #243, #15 ) ;
#8 = PERSON_AND_ORGANIZATION_ROLE ( 'creator' ) ;
#9 = FACE_OUTER_BOUND ( 'NONE', #213, .T. ) ;
#10 = EDGE_CURVE ( 'NONE', #53, #53, #224, .T. ) ;
#11 = APPROVAL_PERSON_ORGANIZATION ( #239, #147, #68 ) ;
#12 = PERSON ( 'UNSPECIFIED', 'UNSPECIFIED', 'UNSPECIFIED', ('UNSPECIFIED'), ('UNSPECIFIED'), ('UNSPECIFIED') ) ;
#13 = PLANE ( 'NONE',  #112 ) ;
#14 = DIRECTION ( 'NONE',  ( -3.491481338843133355E-15, -4.979456465413306025E-16, -1.000000000000000000 ) ) ;
#15 = DIRECTION ( 'NONE',  ( 0.0000000000000000000, 1.000000000000000000, 0.0000000000000000000 ) ) ;
#16 = ORIENTED_EDGE ( 'NONE', *, *, #91, .T. ) ;
#17 = DESIGN_CONTEXT ( 'detailed design', #35, 'design' ) ;
#18 = ORIENTED_EDGE ( 'NONE', *, *, #141, .T. ) ;
#19 = APPROVAL_DATE_TIME ( #118, #92 ) ;
#20 = APPLICATION_CONTEXT ( 'configuration controlled 3d designs of mechanical parts and assemblies' ) ;
#21 = EDGE_LOOP ( 'NONE', ( #5 ) ) ;
#22 = EDGE_LOOP ( 'NONE', ( #93 ) ) ;
#23 = PERSON_AND_ORGANIZATION ( #12, #220 ) ;
#24 = ADVANCED_BREP_SHAPE_REPRESENTATION ( '321396', ( #29, #113, #78 ), #156 ) ;
#25 = CALENDAR_DATE ( 2021, 26, 11 ) ;
#26 = EDGE_CURVE ( 'NONE', #111, #111, #191, .T. ) ;
#27 = DIRECTION ( 'NONE',  ( 3.153425691349006731E-31, 1.000000000000000000, 9.031770143711729009E-17 ) ) ;
#28 = CLOSED_SHELL ( 'NONE', ( #149, #195, #233, #168 ) ) ;
#29 = MANIFOLD_SOLID_BREP ( 'Corps-Déplacer/Copier1[1]', #161 ) ;
#30 = AXIS2_PLACEMENT_3D ( 'NONE', #52, #175, #198 ) ;
#31 = LOCAL_TIME ( 11, 3, 23.00000000000000000, #135 ) ;
#32 = FACE_OUTER_BOUND ( 'NONE', #2, .T. ) ;
#33 = AXIS2_PLACEMENT_3D ( 'NONE', #162, #238, #64 ) ;
#34 = APPROVAL_PERSON_ORGANIZATION ( #97, #165, #181 ) ;
#35 = APPLICATION_CONTEXT ( 'configuration controlled 3d designs of mechanical parts and assemblies' ) ;
#36 = EDGE_LOOP ( 'NONE', ( #117 ) ) ;
#37 = CARTESIAN_POINT ( 'NONE',  ( 2.779219145719134403E-13, 1.999999999999988010, 79.60000000000000853 ) ) ;
#38 = CIRCLE ( 'NONE', #7, 1.599999999999994982 ) ;
#39 = CYLINDRICAL_SURFACE ( 'NONE', #30, 1.999999999999993561 ) ;
#40 = PERSON_AND_ORGANIZATION ( #12, #220 ) ;
#41 = EDGE_LOOP ( 'NONE', ( #16 ) ) ;
#42 = COORDINATED_UNIVERSAL_TIME_OFFSET ( 1, 0, .AHEAD. ) ;
#43 = ORIENTED_EDGE ( 'NONE', *, *, #141, .F. ) ;
#44 = AXIS2_PLACEMENT_3D ( 'NONE', #90, #76, #231 ) ;
#45 = APPROVAL_STATUS ( 'not_yet_approved' ) ;
#46 = CALENDAR_DATE ( 2021, 26, 11 ) ;
#47 = FACE_OUTER_BOUND ( 'NONE', #114, .T. ) ;
#48 = CALENDAR_DATE ( 2021, 26, 11 ) ;
#49 = EDGE_CURVE ( 'NONE', #190, #190, #4, .T. ) ;
#50 = AXIS2_PLACEMENT_3D ( 'NONE', #228, #77, #208 ) ;
#51 = CC_DESIGN_PERSON_AND_ORGANIZATION_ASSIGNMENT ( #23, #80, ( #225 ) ) ;
#52 = CARTESIAN_POINT ( 'NONE',  ( 0.0000000000000000000, 0.0000000000000000000, 0.0000000000000000000 ) ) ;
#53 = VERTEX_POINT ( 'NONE', #130 ) ;
#54 = ORIENTED_EDGE ( 'NONE', *, *, #10, .F. ) ;
#55 = CARTESIAN_POINT ( 'NONE',  ( -6.842277657836020854E-46, 2.233059892324149143, 0.0000000000000000000 ) ) ;
#56 = ORIENTED_EDGE ( 'NONE', *, *, #10, .T. ) ;
#57 = CARTESIAN_POINT ( 'NONE',  ( 1.396592535537253145E-15, 2.463999999999998636, 0.3999999999999999112 ) ) ;
#58 =( NAMED_UNIT ( * ) SI_UNIT ( $, .STERADIAN. ) SOLID_ANGLE_UNIT ( ) );
#59 =( NAMED_UNIT ( * ) PLANE_ANGLE_UNIT ( ) SI_UNIT ( $, .RADIAN. ) );
#60 = APPLICATION_PROTOCOL_DEFINITION ( 'international standard', 'config_control_design', 1994, #35 ) ;
#61 = CIRCLE ( 'NONE', #215, 1.999999999999991784 ) ;
#62 = AXIS2_PLACEMENT_3D ( 'NONE', #218, #95, #200 ) ;
#63 = DATE_AND_TIME ( #6, #206 ) ;
#64 = DIRECTION ( 'NONE',  ( 0.0000000000000000000, 1.000000000000000000, 0.0000000000000000000 ) ) ;
#65 = PERSON_AND_ORGANIZATION_ROLE ( 'design_supplier' ) ;
#66 = CARTESIAN_POINT ( 'NONE',  ( 4.604630829389033746E-14, 2.463999999999998192, 13.18818685399227064 ) ) ;
#67 = APPROVAL_PERSON_ORGANIZATION ( #179, #92, #219 ) ;
#68 = APPROVAL_ROLE ( '' ) ;
#69 = AXIS2_PLACEMENT_3D ( 'NONE', #73, #230, #1 ) ;
#70 = CYLINDRICAL_SURFACE ( 'NONE', #143, 2.463999999999995083 ) ;
#71 = ORIENTED_EDGE ( 'NONE', *, *, #91, .F. ) ;
#72 = UNCERTAINTY_MEASURE_WITH_UNIT (LENGTH_MEASURE( 1.000000000000000082E-05 ), #160, 'distance_accuracy_value', 'NONE');
#73 = CARTESIAN_POINT ( 'NONE',  ( 2.793185071074506684E-13, -7.225416114969383207E-15, 80.00000000000000000 ) ) ;
#74 = CARTESIAN_POINT ( 'NONE',  ( 4.885231259955590439E-14, 1.999999999999990452, 13.99185842870425134 ) ) ;
#75 = ADVANCED_FACE ( 'NONE', ( #133, #211 ), #39, .T. ) ;
#76 = DIRECTION ( 'NONE',  ( -3.491481338843133355E-15, -4.979456465413306025E-16, -1.000000000000000000 ) ) ;
#77 = DIRECTION ( 'NONE',  ( 3.491481338843133355E-15, 4.979456465413306025E-16, 1.000000000000000000 ) ) ;
#78 = AXIS2_PLACEMENT_3D ( 'NONE', #115, #237, #157 ) ;
#79 = EDGE_CURVE ( 'NONE', #132, #132, #61, .T. ) ;
#80 = PERSON_AND_ORGANIZATION_ROLE ( 'creator' ) ;
#81 = DIRECTION ( 'NONE',  ( 0.0000000000000000000, 1.000000000000000000, 0.0000000000000000000 ) ) ;
#82 = CARTESIAN_POINT ( 'NONE',  ( 4.604630829389033115E-14, 2.463999999999998192, 13.18818685399226887 ) ) ;
#83 = DATE_AND_TIME ( #25, #128 ) ;
#84 = AXIS2_PLACEMENT_3D ( 'NONE', #180, #204, #81 ) ;
#85 = CARTESIAN_POINT ( 'NONE',  ( 3.882326320497782506E-30, 5.536869031026340835E-31, 1.111942451848862407E-15 ) ) ;
#86 = FACE_OUTER_BOUND ( 'NONE', #209, .T. ) ;
#87 = DIRECTION ( 'NONE',  ( -1.738567932657234796E-30, 1.000000000000000000, -4.979456465413306025E-16 ) ) ;
#88 = AXIS2_PLACEMENT_3D ( 'NONE', #178, #202, #98 ) ;
#89 = EDGE_LOOP ( 'NONE', ( #196 ) ) ;
#90 = CARTESIAN_POINT ( 'NONE',  ( 4.604630829389033746E-14, 6.567000229719057813E-15, 13.18818685399227064 ) ) ;
#91 = EDGE_CURVE ( 'NONE', #210, #210, #104, .T. ) ;
#92 = APPROVAL ( #45, 'UNSPECIFIED' ) ;
#93 = ORIENTED_EDGE ( 'NONE', *, *, #227, .F. ) ;
#94 = APPROVAL_DATE_TIME ( #197, #165 ) ;
#95 = DIRECTION ( 'NONE',  ( -3.491481338843133355E-15, 9.031770143711729009E-17, -1.000000000000000000 ) ) ;
#96 = DATE_TIME_ROLE ( 'creation_date' ) ;
#97 = PERSON_AND_ORGANIZATION ( #12, #220 ) ;
#98 = DIRECTION ( 'NONE',  ( 0.0000000000000000000, 1.000000000000000000, 0.0000000000000000000 ) ) ;
#99 = PERSON_AND_ORGANIZATION_ROLE ( 'design_owner' ) ;
#100 = CONICAL_SURFACE ( 'NONE', #177, 2.233059892324149143, 0.5235987755982979275 ) ;
#101 = PRODUCT_RELATED_PRODUCT_CATEGORY ( 'detail', '', ( #106 ) ) ;
#102 = ADVANCED_FACE ( 'NONE', ( #126, #9 ), #142, .T. ) ;
#103 = APPROVAL_DATE_TIME ( #107, #147 ) ;
#104 = CIRCLE ( 'NONE', #84, 1.999999999999995337 ) ;
#105 = LOCAL_TIME ( 11, 3, 23.00000000000000000, #42 ) ;
#106 = PRODUCT ( '321396', '321396', '', ( #136 ) ) ;
#107 = DATE_AND_TIME ( #48, #203 ) ;
#108 = CARTESIAN_POINT ( 'NONE',  ( -1.941163160248891253E-30, 2.233059892324149143, -5.559712259244312036E-16 ) ) ;
#109 = APPROVAL_STATUS ( 'not_yet_approved' ) ;
#110 = EDGE_LOOP ( 'NONE', ( #54 ) ) ;
#111 = VERTEX_POINT ( 'NONE', #57 ) ;
#112 = AXIS2_PLACEMENT_3D ( 'NONE', #108, #154, #87 ) ;
#113 = MANIFOLD_SOLID_BREP ( 'Corps-Déplacer/Copier1[2]', #28 ) ;
#114 = EDGE_LOOP ( 'NONE', ( #18 ) ) ;
#115 = CARTESIAN_POINT ( 'NONE',  ( 0.0000000000000000000, 0.0000000000000000000, 0.0000000000000000000 ) ) ;
#116 = ORIENTED_EDGE ( 'NONE', *, *, #26, .T. ) ;
#117 = ORIENTED_EDGE ( 'NONE', *, *, #49, .F. ) ;
#118 = DATE_AND_TIME ( #46, #31 ) ;
#119 = AXIS2_PLACEMENT_3D ( 'NONE', #189, #14, #173 ) ;
#120 = CC_DESIGN_APPROVAL ( #92, ( #3 ) ) ;
#121 = COORDINATED_UNIVERSAL_TIME_OFFSET ( 1, 0, .AHEAD. ) ;
#122 = FACE_BOUND ( 'NONE', #158, .T. ) ;
#123 = CALENDAR_DATE ( 2021, 26, 11 ) ;
#124 = DIRECTION ( 'NONE',  ( -3.491481338843133355E-15, 9.031770143711729009E-17, -1.000000000000000000 ) ) ;
#125 = CC_DESIGN_APPROVAL ( #147, ( #144 ) ) ;
#126 = FACE_BOUND ( 'NONE', #170, .T. ) ;
#127 = CC_DESIGN_PERSON_AND_ORGANIZATION_ASSIGNMENT ( #216, #199, ( #144 ) ) ;
#128 = LOCAL_TIME ( 11, 3, 23.00000000000000000, #201 ) ;
#129 = FACE_OUTER_BOUND ( 'NONE', #89, .T. ) ;
#130 = CARTESIAN_POINT ( 'NONE',  ( 4.604630829389033115E-14, 2.463999999999998192, 13.18818685399226887 ) ) ;
#131 = ORIENTED_EDGE ( 'NONE', *, *, #26, .F. ) ;
#132 = VERTEX_POINT ( 'NONE', #74 ) ;
#133 = FACE_OUTER_BOUND ( 'NONE', #41, .T. ) ;
#134 = PLANE ( 'NONE',  #69 ) ;
#135 = COORDINATED_UNIVERSAL_TIME_OFFSET ( 1, 0, .AHEAD. ) ;
#136 = MECHANICAL_CONTEXT ( 'NONE', #20, 'mechanical' ) ;
#137 = SECURITY_CLASSIFICATION_LEVEL ( 'unclassified' ) ;
#138 = CARTESIAN_POINT ( 'NONE',  ( 4.885231259955590439E-14, -1.263712492114123682E-15, 13.99185842870425134 ) ) ;
#139 = APPROVAL_STATUS ( 'not_yet_approved' ) ;
#140 = ADVANCED_FACE ( 'NONE', ( #122, #166 ), #205, .T. ) ;
#141 = EDGE_CURVE ( 'NONE', #174, #174, #182, .T. ) ;
#142 = CONICAL_SURFACE ( 'NONE', #62, 1.999999999999995337, 0.7853981633974516097 ) ;
#143 = AXIS2_PLACEMENT_3D ( 'NONE', #146, #187, #148 ) ;
#144 = SECURITY_CLASSIFICATION ( '', '', #137 ) ;
#145 = ADVANCED_FACE ( 'NONE', ( #47 ), #240, .T. ) ;
#146 = CARTESIAN_POINT ( 'NONE',  ( 0.0000000000000000000, 0.0000000000000000000, 0.0000000000000000000 ) ) ;
#147 = APPROVAL ( #109, 'UNSPECIFIED' ) ;
#148 = DIRECTION ( 'NONE',  ( -1.738567932657235146E-30, 1.000000000000000000, -4.979456465413306025E-16 ) ) ;
#149 = ADVANCED_FACE ( 'NONE', ( #222 ), #152, .T. ) ;
#150 = CC_DESIGN_DATE_AND_TIME_ASSIGNMENT ( #63, #96, ( #3 ) ) ;
#151 = EDGE_LOOP ( 'NONE', ( #43 ) ) ;
#152 = PLANE ( 'NONE',  #50 ) ;
#153 = DIRECTION ( 'NONE',  ( -3.491481338843133355E-15, -4.979456465413306025E-16, -1.000000000000000000 ) ) ;
#154 = DIRECTION ( 'NONE',  ( -3.491481338843133355E-15, -4.979456465413306025E-16, -1.000000000000000000 ) ) ;
#155 = ORIENTED_EDGE ( 'NONE', *, *, #79, .T. ) ;
#156 =( GEOMETRIC_REPRESENTATION_CONTEXT ( 3 ) GLOBAL_UNCERTAINTY_ASSIGNED_CONTEXT ( ( #72 ) ) GLOBAL_UNIT_ASSIGNED_CONTEXT ( ( #160, #59, #58 ) ) REPRESENTATION_CONTEXT ( 'NONE', 'WORKASPACE' ) );
#157 = DIRECTION ( 'NONE',  ( 1.000000000000000000, 0.0000000000000000000, 0.0000000000000000000 ) ) ;
#158 = EDGE_LOOP ( 'NONE', ( #155 ) ) ;
#159 = PERSON_AND_ORGANIZATION ( #12, #220 ) ;
#160 =( LENGTH_UNIT ( ) NAMED_UNIT ( * ) SI_UNIT ( .MILLI., .METRE. ) );
#161 = CLOSED_SHELL ( 'NONE', ( #241, #102, #75, #140, #145 ) ) ;
#162 = CARTESIAN_POINT ( 'NONE',  ( 4.604630829389033115E-14, -1.191126722775788818E-15, 13.18818685399226887 ) ) ;
#163 = PRODUCT_DEFINITION_SHAPE ( 'NONE', 'NONE',  #3 ) ;
#164 = DIRECTION ( 'NONE',  ( 0.0000000000000000000, 1.000000000000000000, 0.0000000000000000000 ) ) ;
#165 = APPROVAL ( #139, 'UNSPECIFIED' ) ;
#166 = FACE_OUTER_BOUND ( 'NONE', #151, .T. ) ;
#167 = DIRECTION ( 'NONE',  ( 3.491481338843133355E-15, 4.979456465413306025E-16, 1.000000000000000000 ) ) ;
#168 = ADVANCED_FACE ( 'NONE', ( #129 ), #13, .T. ) ;
#169 = CARTESIAN_POINT ( 'NONE',  ( 2.793185071074506684E-13, -7.225416114969383207E-15, 80.00000000000000000 ) ) ;
#170 = EDGE_LOOP ( 'NONE', ( #192 ) ) ;
#171 = FACE_OUTER_BOUND ( 'NONE', #194, .T. ) ;
#172 = FACE_BOUND ( 'NONE', #36, .T. ) ;
#173 = DIRECTION ( 'NONE',  ( -1.719580307488604291E-30, 1.000000000000000000, -5.060196827752966240E-16 ) ) ;
#174 = VERTEX_POINT ( 'NONE', #82 ) ;
#175 = DIRECTION ( 'NONE',  ( -3.491481338843133355E-15, 9.031770143711729009E-17, -1.000000000000000000 ) ) ;
#176 = CARTESIAN_POINT ( 'NONE',  ( 2.793185071074506684E-13, 1.599999999999987876, 80.00000000000000000 ) ) ;
#177 = AXIS2_PLACEMENT_3D ( 'NONE', #85, #167, #223 ) ;
#178 = CARTESIAN_POINT ( 'NONE',  ( 4.604630829389033115E-14, -1.191126722775788818E-15, 13.18818685399226887 ) ) ;
#179 = PERSON_AND_ORGANIZATION ( #12, #220 ) ;
#180 = CARTESIAN_POINT ( 'NONE',  ( 2.779219145719134403E-13, -7.189289034394536528E-15, 79.60000000000000853 ) ) ;
#181 = APPROVAL_ROLE ( '' ) ;
#182 = CIRCLE ( 'NONE', #33, 2.463999999999999524 ) ;
#183 = COORDINATED_UNIVERSAL_TIME_OFFSET ( 1, 0, .AHEAD. ) ;
#184 = AXIS2_PLACEMENT_3D ( 'NONE', #242, #153, #229 ) ;
#185 = CC_DESIGN_SECURITY_CLASSIFICATION ( #144, ( #225 ) ) ;
#186 = CC_DESIGN_DATE_AND_TIME_ASSIGNMENT ( #83, #212, ( #144 ) ) ;
#187 = DIRECTION ( 'NONE',  ( -3.491481338843133355E-15, -4.979456465413306025E-16, -1.000000000000000000 ) ) ;
#188 = SHAPE_DEFINITION_REPRESENTATION ( #163, #24 ) ;
#189 = CARTESIAN_POINT ( 'NONE',  ( 1.396592535537257286E-15, 1.991782586165328031E-16, 0.4000000000000011324 ) ) ;
#190 = VERTEX_POINT ( 'NONE', #55 ) ;
#191 = CIRCLE ( 'NONE', #119, 2.463999999999998636 ) ;
#192 = ORIENTED_EDGE ( 'NONE', *, *, #227, .T. ) ;
#193 = APPLICATION_PROTOCOL_DEFINITION ( 'international standard', 'config_control_design', 1994, #20 ) ;
#194 = EDGE_LOOP ( 'NONE', ( #131 ) ) ;
#195 = ADVANCED_FACE ( 'NONE', ( #86, #171 ), #70, .T. ) ;
#196 = ORIENTED_EDGE ( 'NONE', *, *, #49, .T. ) ;
#197 = DATE_AND_TIME ( #123, #105 ) ;
#198 = DIRECTION ( 'NONE',  ( 3.153425691349006731E-31, 1.000000000000000000, 9.031770143711729009E-17 ) ) ;
#199 = PERSON_AND_ORGANIZATION_ROLE ( 'classification_officer' ) ;
#200 = DIRECTION ( 'NONE',  ( 0.0000000000000000000, 1.000000000000000000, 0.0000000000000000000 ) ) ;
#201 = COORDINATED_UNIVERSAL_TIME_OFFSET ( 1, 0, .AHEAD. ) ;
#202 = DIRECTION ( 'NONE',  ( -3.491481338843133355E-15, 9.031770143711729009E-17, -1.000000000000000000 ) ) ;
#203 = LOCAL_TIME ( 11, 3, 23.00000000000000000, #183 ) ;
#204 = DIRECTION ( 'NONE',  ( -3.491481338843133355E-15, 9.031770143711729009E-17, -1.000000000000000000 ) ) ;
#205 = CONICAL_SURFACE ( 'NONE', #88, 2.463999999999999524, 0.5235987755982930425 ) ;
#206 = LOCAL_TIME ( 11, 3, 23.00000000000000000, #121 ) ;
#207 = CC_DESIGN_PERSON_AND_ORGANIZATION_ASSIGNMENT ( #159, #65, ( #225 ) ) ;
#208 = DIRECTION ( 'NONE',  ( 1.738567932657234796E-30, -1.000000000000000000, 4.979456465413306025E-16 ) ) ;
#209 = EDGE_LOOP ( 'NONE', ( #56 ) ) ;
#210 = VERTEX_POINT ( 'NONE', #37 ) ;
#211 = FACE_OUTER_BOUND ( 'NONE', #21, .T. ) ;
#212 = DATE_TIME_ROLE ( 'classification_date' ) ;
#213 = EDGE_LOOP ( 'NONE', ( #71 ) ) ;
#214 = CC_DESIGN_PERSON_AND_ORGANIZATION_ASSIGNMENT ( #40, #8, ( #3 ) ) ;
#215 = AXIS2_PLACEMENT_3D ( 'NONE', #138, #221, #164 ) ;
#216 = PERSON_AND_ORGANIZATION ( #12, #220 ) ;
#217 = CC_DESIGN_APPROVAL ( #165, ( #225 ) ) ;
#218 = CARTESIAN_POINT ( 'NONE',  ( 2.779219145719134403E-13, -7.189289034394536528E-15, 79.60000000000000853 ) ) ;
#219 = APPROVAL_ROLE ( '' ) ;
#220 = ORGANIZATION ( 'UNSPECIFIED', 'UNSPECIFIED', '' ) ;
#221 = DIRECTION ( 'NONE',  ( -3.491481338843133355E-15, 9.031770143711729009E-17, -1.000000000000000000 ) ) ;
#222 = FACE_OUTER_BOUND ( 'NONE', #110, .T. ) ;
#223 = DIRECTION ( 'NONE',  ( 1.738567932657235146E-30, -1.000000000000000000, 4.979456465413305039E-16 ) ) ;
#224 = CIRCLE ( 'NONE', #44, 2.463999999999991974 ) ;
#225 = PRODUCT_DEFINITION_FORMATION_WITH_SPECIFIED_SOURCE ( 'ANY', '', #106, .NOT_KNOWN. ) ;
#226 = FACE_OUTER_BOUND ( 'NONE', #22, .T. ) ;
#227 = EDGE_CURVE ( 'NONE', #232, #232, #38, .T. ) ;
#228 = CARTESIAN_POINT ( 'NONE',  ( 4.604630829389033746E-14, 6.567000229719057024E-15, 13.18818685399227064 ) ) ;
#229 = DIRECTION ( 'NONE',  ( -1.738567932657234796E-30, 1.000000000000000000, -4.979456465413305039E-16 ) ) ;
#230 = DIRECTION ( 'NONE',  ( 3.491481338843133355E-15, -9.031770143711729009E-17, 1.000000000000000000 ) ) ;
#231 = DIRECTION ( 'NONE',  ( -2.501207719983431366E-30, 1.000000000000000000, -7.040273847308493376E-16 ) ) ;
#232 = VERTEX_POINT ( 'NONE', #176 ) ;
#233 = ADVANCED_FACE ( 'NONE', ( #32, #172 ), #100, .T. ) ;
#234 = CC_DESIGN_PERSON_AND_ORGANIZATION_ASSIGNMENT ( #235, #99, ( #106 ) ) ;
#235 = PERSON_AND_ORGANIZATION ( #12, #220 ) ;
#236 = AXIS2_PLACEMENT_3D ( 'NONE', #66, #124, #27 ) ;
#237 = DIRECTION ( 'NONE',  ( 0.0000000000000000000, 0.0000000000000000000, 1.000000000000000000 ) ) ;
#238 = DIRECTION ( 'NONE',  ( -3.491481338843133355E-15, 9.031770143711729009E-17, -1.000000000000000000 ) ) ;
#239 = PERSON_AND_ORGANIZATION ( #12, #220 ) ;
#240 = PLANE ( 'NONE',  #236 ) ;
#241 = ADVANCED_FACE ( 'NONE', ( #226 ), #134, .T. ) ;
#242 = CARTESIAN_POINT ( 'NONE',  ( 3.882326320497782506E-30, 5.536869031026340835E-31, 1.111942451848862407E-15 ) ) ;
#243 = DIRECTION ( 'NONE',  ( -3.491481338843133355E-15, 9.031770143711729009E-17, -1.000000000000000000 ) ) ;
ENDSEC;
END-ISO-10303-21;
