ISO-10303-21;
HEADER;
FILE_DESCRIPTION (( 'STEP AP203' ),
    '1' );
FILE_NAME ('321395.step',
    '2021-11-26T10:03:22',
    ( '' ),
    ( '' ),
    'SwSTEP 2.0',
    'SolidWorks 2019',
    '' );
FILE_SCHEMA (( 'CONFIG_CONTROL_DESIGN' ));
ENDSEC;

DATA;
#1 = EDGE_LOOP ( 'NONE', ( #171 ) ) ;
#2 = DIRECTION ( 'NONE',  ( -1.736865829337869341E-30, 1.000000000000000000, -4.974581447751235043E-16 ) ) ;
#3 = FACE_BOUND ( 'NONE', #223, .T. ) ;
#4 = APPLICATION_CONTEXT ( 'configuration controlled 3d designs of mechanical parts and assemblies' ) ;
#5 = DIRECTION ( 'NONE',  ( 3.491481338843133355E-15, 4.974581447751235043E-16, 1.000000000000000000 ) ) ;
#6 = AXIS2_PLACEMENT_3D ( 'NONE', #20, #241, #149 ) ;
#7 = DATE_TIME_ROLE ( 'creation_date' ) ;
#8 = PERSON_AND_ORGANIZATION ( #185, #90 ) ;
#9 =( NAMED_UNIT ( * ) PLANE_ANGLE_UNIT ( ) SI_UNIT ( $, .RADIAN. ) );
#10 = EDGE_LOOP ( 'NONE', ( #186 ) ) ;
#11 = CC_DESIGN_DATE_AND_TIME_ASSIGNMENT ( #132, #214, ( #123 ) ) ;
#12 = EDGE_LOOP ( 'NONE', ( #196 ) ) ;
#13 = ADVANCED_FACE ( 'NONE', ( #169, #118 ), #33, .T. ) ;
#14 = PLANE ( 'NONE',  #30 ) ;
#15 = DIRECTION ( 'NONE',  ( -2.506293542919550441E-30, 1.000000000000000000, -7.054589166233479743E-16 ) ) ;
#16 = AXIS2_PLACEMENT_3D ( 'NONE', #127, #207, #128 ) ;
#17 = FACE_BOUND ( 'NONE', #131, .T. ) ;
#18 = CC_DESIGN_DATE_AND_TIME_ASSIGNMENT ( #209, #7, ( #103 ) ) ;
#19 = FACE_OUTER_BOUND ( 'NONE', #200, .T. ) ;
#20 = CARTESIAN_POINT ( 'NONE',  ( 4.607654540925311250E-14, -1.191908897014348509E-15, 13.19684710803011463 ) ) ;
#21 =( GEOMETRIC_REPRESENTATION_CONTEXT ( 3 ) GLOBAL_UNCERTAINTY_ASSIGNED_CONTEXT ( ( #69 ) ) GLOBAL_UNIT_ASSIGNED_CONTEXT ( ( #187, #9, #235 ) ) REPRESENTATION_CONTEXT ( 'NONE', 'WORKASPACE' ) );
#22 = DIRECTION ( 'NONE',  ( 0.0000000000000000000, 1.000000000000000000, 0.0000000000000000000 ) ) ;
#23 = APPROVAL_STATUS ( 'not_yet_approved' ) ;
#24 = COORDINATED_UNIVERSAL_TIME_OFFSET ( 1, 0, .AHEAD. ) ;
#25 = APPROVAL_PERSON_ORGANIZATION ( #75, #177, #190 ) ;
#26 = ORIENTED_EDGE ( 'NONE', *, *, #140, .T. ) ;
#27 = ORIENTED_EDGE ( 'NONE', *, *, #104, .F. ) ;
#28 = CARTESIAN_POINT ( 'NONE',  ( 4.607654540925310619E-14, 6.564879079241614035E-15, 13.19684710803011285 ) ) ;
#29 = MANIFOLD_SOLID_BREP ( 'Corps-Déplacer/Copier1[2]', #150 ) ;
#30 = AXIS2_PLACEMENT_3D ( 'NONE', #84, #174, #219 ) ;
#31 = CLOSED_SHELL ( 'NONE', ( #92, #154, #228, #96, #44 ) ) ;
#32 = CARTESIAN_POINT ( 'NONE',  ( 4.885231259955590439E-14, 1.999999999999990452, 13.99185842870425134 ) ) ;
#33 = CONICAL_SURFACE ( 'NONE', #218, 2.228059892324148361, 0.5235987755982978165 ) ;
#34 = CARTESIAN_POINT ( 'NONE',  ( 4.607654540925311250E-14, 2.458999999999998298, 13.19684710803011463 ) ) ;
#35 = FACE_OUTER_BOUND ( 'NONE', #126, .T. ) ;
#36 = ORIENTED_EDGE ( 'NONE', *, *, #144, .F. ) ;
#37 = PLANE ( 'NONE',  #65 ) ;
#38 = VERTEX_POINT ( 'NONE', #87 ) ;
#39 = APPROVAL_STATUS ( 'not_yet_approved' ) ;
#40 = CONICAL_SURFACE ( 'NONE', #48, 1.999999999999995337, 0.7853981633974516097 ) ;
#41 = PERSON_AND_ORGANIZATION ( #185, #90 ) ;
#42 = SHAPE_DEFINITION_REPRESENTATION ( #175, #157 ) ;
#43 = ORIENTED_EDGE ( 'NONE', *, *, #134, .T. ) ;
#44 = ADVANCED_FACE ( 'NONE', ( #62 ), #14, .T. ) ;
#45 = CC_DESIGN_PERSON_AND_ORGANIZATION_ASSIGNMENT ( #57, #135, ( #123 ) ) ;
#46 = CARTESIAN_POINT ( 'NONE',  ( 4.607654540925311882E-14, 6.564879079241614824E-15, 13.19684710803011463 ) ) ;
#47 = DIRECTION ( 'NONE',  ( -3.491481338843133355E-15, -4.974581447751235043E-16, -1.000000000000000000 ) ) ;
#48 = AXIS2_PLACEMENT_3D ( 'NONE', #88, #141, #68 ) ;
#49 = DIRECTION ( 'NONE',  ( -3.491481338843133355E-15, -4.974581447751235043E-16, -1.000000000000000000 ) ) ;
#50 = DIRECTION ( 'NONE',  ( -1.736865829337868991E-30, 1.000000000000000000, -4.974581447751234057E-16 ) ) ;
#51 = DIRECTION ( 'NONE',  ( -3.491481338843133355E-15, -4.974581447751235043E-16, -1.000000000000000000 ) ) ;
#52 = AXIS2_PLACEMENT_3D ( 'NONE', #28, #102, #160 ) ;
#53 = DATE_AND_TIME ( #152, #195 ) ;
#54 = EDGE_LOOP ( 'NONE', ( #26 ) ) ;
#55 = CC_DESIGN_PERSON_AND_ORGANIZATION_ASSIGNMENT ( #237, #97, ( #103 ) ) ;
#56 = SECURITY_CLASSIFICATION_LEVEL ( 'unclassified' ) ;
#57 = PERSON_AND_ORGANIZATION ( #185, #90 ) ;
#58 = CIRCLE ( 'NONE', #215, 1.999999999999995337 ) ;
#59 = CALENDAR_DATE ( 2021, 26, 11 ) ;
#60 = PRODUCT ( '321395', '321395', '', ( #100 ) ) ;
#61 = COORDINATED_UNIVERSAL_TIME_OFFSET ( 1, 0, .AHEAD. ) ;
#62 = FACE_OUTER_BOUND ( 'NONE', #232, .T. ) ;
#63 = CIRCLE ( 'NONE', #203, 1.999999999999991784 ) ;
#64 = AXIS2_PLACEMENT_3D ( 'NONE', #205, #49, #111 ) ;
#65 = AXIS2_PLACEMENT_3D ( 'NONE', #109, #51, #2 ) ;
#66 = APPROVAL ( #23, 'UNSPECIFIED' ) ;
#67 = DIRECTION ( 'NONE',  ( -3.491481338843133355E-15, 9.031770143711729009E-17, -1.000000000000000000 ) ) ;
#68 = DIRECTION ( 'NONE',  ( 0.0000000000000000000, 1.000000000000000000, 0.0000000000000000000 ) ) ;
#69 = UNCERTAINTY_MEASURE_WITH_UNIT (LENGTH_MEASURE( 1.000000000000000082E-05 ), #187, 'distance_accuracy_value', 'NONE');
#70 = VERTEX_POINT ( 'NONE', #32 ) ;
#71 = PRODUCT_DEFINITION_FORMATION_WITH_SPECIFIED_SOURCE ( 'ANY', '', #60, .NOT_KNOWN. ) ;
#72 = CARTESIAN_POINT ( 'NONE',  ( 2.779219145719134403E-13, -7.189289034394536528E-15, 79.60000000000000853 ) ) ;
#73 = ADVANCED_FACE ( 'NONE', ( #198 ), #120, .T. ) ;
#74 = DIRECTION ( 'NONE',  ( 3.491481338843133355E-15, -9.031770143711729009E-17, 1.000000000000000000 ) ) ;
#75 = PERSON_AND_ORGANIZATION ( #185, #90 ) ;
#76 = EDGE_LOOP ( 'NONE', ( #36 ) ) ;
#77 = EDGE_CURVE ( 'NONE', #38, #38, #194, .T. ) ;
#78 = APPROVAL_DATE_TIME ( #168, #66 ) ;
#79 = ADVANCED_FACE ( 'NONE', ( #179 ), #37, .T. ) ;
#80 = APPROVAL_STATUS ( 'not_yet_approved' ) ;
#81 = PERSON_AND_ORGANIZATION_ROLE ( 'design_supplier' ) ;
#82 = PERSON_AND_ORGANIZATION ( #185, #90 ) ;
#83 = AXIS2_PLACEMENT_3D ( 'NONE', #176, #163, #50 ) ;
#84 = CARTESIAN_POINT ( 'NONE',  ( 4.607654540925310619E-14, 2.458999999999998298, 13.19684710803011285 ) ) ;
#85 = ORIENTED_EDGE ( 'NONE', *, *, #110, .T. ) ;
#86 = CONICAL_SURFACE ( 'NONE', #6, 2.458999999999999631, 0.5235987755982935976 ) ;
#87 = CARTESIAN_POINT ( 'NONE',  ( 2.793185071074506684E-13, 1.599999999999987876, 80.00000000000000000 ) ) ;
#88 = CARTESIAN_POINT ( 'NONE',  ( 2.779219145719134403E-13, -7.189289034394536528E-15, 79.60000000000000853 ) ) ;
#89 = CARTESIAN_POINT ( 'NONE',  ( 0.0000000000000000000, 2.228059892324148361, 0.0000000000000000000 ) ) ;
#90 = ORGANIZATION ( 'UNSPECIFIED', 'UNSPECIFIED', '' ) ;
#91 = DIRECTION ( 'NONE',  ( -3.491481338843133355E-15, 9.031770143711729009E-17, -1.000000000000000000 ) ) ;
#92 = ADVANCED_FACE ( 'NONE', ( #180 ), #227, .T. ) ;
#93 = DIRECTION ( 'NONE',  ( -3.153425691349006731E-31, -1.000000000000000000, -9.031770143711729009E-17 ) ) ;
#94 = CARTESIAN_POINT ( 'NONE',  ( 0.0000000000000000000, 0.0000000000000000000, 0.0000000000000000000 ) ) ;
#95 = CC_DESIGN_PERSON_AND_ORGANIZATION_ASSIGNMENT ( #233, #81, ( #71 ) ) ;
#96 = ADVANCED_FACE ( 'NONE', ( #17, #19 ), #86, .T. ) ;
#97 = PERSON_AND_ORGANIZATION_ROLE ( 'creator' ) ;
#98 = CIRCLE ( 'NONE', #238, 2.458999999999992081 ) ;
#99 = LOCAL_TIME ( 11, 3, 22.00000000000000000, #217 ) ;
#100 = MECHANICAL_CONTEXT ( 'NONE', #234, 'mechanical' ) ;
#101 = CARTESIAN_POINT ( 'NONE',  ( 3.869841092696025493E-30, 5.513659629597100272E-31, 1.108366540483432239E-15 ) ) ;
#102 = DIRECTION ( 'NONE',  ( 3.491481338843133355E-15, 4.974581447751235043E-16, 1.000000000000000000 ) ) ;
#103 = PRODUCT_DEFINITION ( 'UNKNOWN', '', #71, #181 ) ;
#104 = EDGE_CURVE ( 'NONE', #114, #114, #107, .T. ) ;
#105 = CC_DESIGN_SECURITY_CLASSIFICATION ( #123, ( #71 ) ) ;
#106 = VERTEX_POINT ( 'NONE', #216 ) ;
#107 = CIRCLE ( 'NONE', #139, 2.458999999999999631 ) ;
#108 = VERTEX_POINT ( 'NONE', #89 ) ;
#109 = CARTESIAN_POINT ( 'NONE',  ( -1.934920546348012747E-30, 2.228059892324148361, -5.541832702417161195E-16 ) ) ;
#110 = EDGE_CURVE ( 'NONE', #70, #70, #63, .T. ) ;
#111 = DIRECTION ( 'NONE',  ( -1.736865829337869341E-30, 1.000000000000000000, -4.974581447751235043E-16 ) ) ;
#112 = ORIENTED_EDGE ( 'NONE', *, *, #77, .F. ) ;
#113 = LOCAL_TIME ( 11, 3, 22.00000000000000000, #61 ) ;
#114 = VERTEX_POINT ( 'NONE', #162 ) ;
#115 = DIRECTION ( 'NONE',  ( 0.0000000000000000000, 0.0000000000000000000, 1.000000000000000000 ) ) ;
#116 = APPROVAL_ROLE ( '' ) ;
#117 = APPROVAL_ROLE ( '' ) ;
#118 = FACE_BOUND ( 'NONE', #12, .T. ) ;
#119 = AXIS2_PLACEMENT_3D ( 'NONE', #143, #148, #167 ) ;
#120 = PLANE ( 'NONE',  #52 ) ;
#121 = FACE_OUTER_BOUND ( 'NONE', #54, .T. ) ;
#122 = CIRCLE ( 'NONE', #64, 2.228059892324148361 ) ;
#123 = SECURITY_CLASSIFICATION ( '', '', #56 ) ;
#124 = DIRECTION ( 'NONE',  ( 0.0000000000000000000, 1.000000000000000000, 0.0000000000000000000 ) ) ;
#125 = CYLINDRICAL_SURFACE ( 'NONE', #16, 1.999999999999993561 ) ;
#126 = EDGE_LOOP ( 'NONE', ( #206 ) ) ;
#127 = CARTESIAN_POINT ( 'NONE',  ( 0.0000000000000000000, 0.0000000000000000000, 0.0000000000000000000 ) ) ;
#128 = DIRECTION ( 'NONE',  ( 3.153425691349006731E-31, 1.000000000000000000, 9.031770143711729009E-17 ) ) ;
#129 = ORIENTED_EDGE ( 'NONE', *, *, #104, .T. ) ;
#130 = PERSON_AND_ORGANIZATION_ROLE ( 'creator' ) ;
#131 = EDGE_LOOP ( 'NONE', ( #85 ) ) ;
#132 = DATE_AND_TIME ( #133, #99 ) ;
#133 = CALENDAR_DATE ( 2021, 26, 11 ) ;
#134 = EDGE_CURVE ( 'NONE', #183, #183, #98, .T. ) ;
#135 = PERSON_AND_ORGANIZATION_ROLE ( 'classification_officer' ) ;
#136 = CC_DESIGN_PERSON_AND_ORGANIZATION_ASSIGNMENT ( #236, #130, ( #71 ) ) ;
#137 = EDGE_CURVE ( 'NONE', #108, #108, #122, .T. ) ;
#138 = PRODUCT_RELATED_PRODUCT_CATEGORY ( 'detail', '', ( #60 ) ) ;
#139 = AXIS2_PLACEMENT_3D ( 'NONE', #230, #182, #22 ) ;
#140 = EDGE_CURVE ( 'NONE', #164, #164, #58, .T. ) ;
#141 = DIRECTION ( 'NONE',  ( -3.491481338843133355E-15, 9.031770143711729009E-17, -1.000000000000000000 ) ) ;
#142 = CC_DESIGN_PERSON_AND_ORGANIZATION_ASSIGNMENT ( #82, #191, ( #60 ) ) ;
#143 = CARTESIAN_POINT ( 'NONE',  ( 1.396592535537257286E-15, 1.989832579100499835E-16, 0.4000000000000011324 ) ) ;
#144 = EDGE_CURVE ( 'NONE', #106, #106, #173, .T. ) ;
#145 = EDGE_LOOP ( 'NONE', ( #43 ) ) ;
#146 = DIRECTION ( 'NONE',  ( 0.0000000000000000000, 1.000000000000000000, 0.0000000000000000000 ) ) ;
#147 = ORIENTED_EDGE ( 'NONE', *, *, #144, .T. ) ;
#148 = DIRECTION ( 'NONE',  ( -3.491481338843133355E-15, -4.974581447751235043E-16, -1.000000000000000000 ) ) ;
#149 = DIRECTION ( 'NONE',  ( 0.0000000000000000000, 1.000000000000000000, 0.0000000000000000000 ) ) ;
#150 = CLOSED_SHELL ( 'NONE', ( #73, #188, #13, #79 ) ) ;
#151 = CALENDAR_DATE ( 2021, 26, 11 ) ;
#152 = CALENDAR_DATE ( 2021, 26, 11 ) ;
#153 = APPROVAL_DATE_TIME ( #53, #177 ) ;
#154 = ADVANCED_FACE ( 'NONE', ( #3, #35 ), #40, .T. ) ;
#155 = COORDINATED_UNIVERSAL_TIME_OFFSET ( 1, 0, .AHEAD. ) ;
#156 = APPROVAL_PERSON_ORGANIZATION ( #41, #213, #117 ) ;
#157 = ADVANCED_BREP_SHAPE_REPRESENTATION ( '321395', ( #192, #29, #170 ), #21 ) ;
#158 = APPLICATION_PROTOCOL_DEFINITION ( 'international standard', 'config_control_design', 1994, #4 ) ;
#159 = COORDINATED_UNIVERSAL_TIME_OFFSET ( 1, 0, .AHEAD. ) ;
#160 = DIRECTION ( 'NONE',  ( 1.736865829337869341E-30, -1.000000000000000000, 4.974581447751235043E-16 ) ) ;
#161 = CARTESIAN_POINT ( 'NONE',  ( 2.793185071074506684E-13, -7.225416114969383207E-15, 80.00000000000000000 ) ) ;
#162 = CARTESIAN_POINT ( 'NONE',  ( 4.607654540925311250E-14, 2.458999999999998298, 13.19684710803011463 ) ) ;
#163 = DIRECTION ( 'NONE',  ( -3.491481338843133355E-15, -4.974581447751235043E-16, -1.000000000000000000 ) ) ;
#164 = VERTEX_POINT ( 'NONE', #243 ) ;
#165 = AXIS2_PLACEMENT_3D ( 'NONE', #242, #74, #93 ) ;
#166 = CYLINDRICAL_SURFACE ( 'NONE', #83, 2.458999999999995190 ) ;
#167 = DIRECTION ( 'NONE',  ( -1.723076810757186637E-30, 1.000000000000000000, -5.070485963230300623E-16 ) ) ;
#168 = DATE_AND_TIME ( #59, #204 ) ;
#169 = FACE_OUTER_BOUND ( 'NONE', #229, .T. ) ;
#170 = AXIS2_PLACEMENT_3D ( 'NONE', #94, #115, #193 ) ;
#171 = ORIENTED_EDGE ( 'NONE', *, *, #137, .T. ) ;
#172 = AXIS2_PLACEMENT_3D ( 'NONE', #161, #240, #221 ) ;
#173 = CIRCLE ( 'NONE', #119, 2.458999999999998298 ) ;
#174 = DIRECTION ( 'NONE',  ( -3.491481338843133355E-15, 9.031770143711729009E-17, -1.000000000000000000 ) ) ;
#175 = PRODUCT_DEFINITION_SHAPE ( 'NONE', 'NONE',  #103 ) ;
#176 = CARTESIAN_POINT ( 'NONE',  ( 0.0000000000000000000, 0.0000000000000000000, 0.0000000000000000000 ) ) ;
#177 = APPROVAL ( #80, 'UNSPECIFIED' ) ;
#178 = APPROVAL_DATE_TIME ( #220, #213 ) ;
#179 = FACE_OUTER_BOUND ( 'NONE', #1, .T. ) ;
#180 = FACE_OUTER_BOUND ( 'NONE', #197, .T. ) ;
#181 = DESIGN_CONTEXT ( 'detailed design', #4, 'design' ) ;
#182 = DIRECTION ( 'NONE',  ( -3.491481338843133355E-15, 9.031770143711729009E-17, -1.000000000000000000 ) ) ;
#183 = VERTEX_POINT ( 'NONE', #34 ) ;
#184 = ORIENTED_EDGE ( 'NONE', *, *, #110, .F. ) ;
#185 = PERSON ( 'UNSPECIFIED', 'UNSPECIFIED', 'UNSPECIFIED', ('UNSPECIFIED'), ('UNSPECIFIED'), ('UNSPECIFIED') ) ;
#186 = ORIENTED_EDGE ( 'NONE', *, *, #134, .F. ) ;
#187 =( LENGTH_UNIT ( ) NAMED_UNIT ( * ) SI_UNIT ( .MILLI., .METRE. ) );
#188 = ADVANCED_FACE ( 'NONE', ( #231, #225 ), #166, .T. ) ;
#189 = CC_DESIGN_APPROVAL ( #177, ( #71 ) ) ;
#190 = APPROVAL_ROLE ( '' ) ;
#191 = PERSON_AND_ORGANIZATION_ROLE ( 'design_owner' ) ;
#192 = MANIFOLD_SOLID_BREP ( 'Corps-Déplacer/Copier1[1]', #31 ) ;
#193 = DIRECTION ( 'NONE',  ( 1.000000000000000000, 0.0000000000000000000, 0.0000000000000000000 ) ) ;
#194 = CIRCLE ( 'NONE', #172, 1.599999999999994982 ) ;
#195 = LOCAL_TIME ( 11, 3, 22.00000000000000000, #155 ) ;
#196 = ORIENTED_EDGE ( 'NONE', *, *, #137, .F. ) ;
#197 = EDGE_LOOP ( 'NONE', ( #112 ) ) ;
#198 = FACE_OUTER_BOUND ( 'NONE', #10, .T. ) ;
#199 = LOCAL_TIME ( 11, 3, 22.00000000000000000, #159 ) ;
#200 = EDGE_LOOP ( 'NONE', ( #27 ) ) ;
#201 = CALENDAR_DATE ( 2021, 26, 11 ) ;
#202 = FACE_OUTER_BOUND ( 'NONE', #212, .T. ) ;
#203 = AXIS2_PLACEMENT_3D ( 'NONE', #226, #91, #146 ) ;
#204 = LOCAL_TIME ( 11, 3, 22.00000000000000000, #24 ) ;
#205 = CARTESIAN_POINT ( 'NONE',  ( 3.869841092696025493E-30, 5.513659629597100272E-31, 1.108366540483432239E-15 ) ) ;
#206 = ORIENTED_EDGE ( 'NONE', *, *, #140, .F. ) ;
#207 = DIRECTION ( 'NONE',  ( -3.491481338843133355E-15, 9.031770143711729009E-17, -1.000000000000000000 ) ) ;
#208 = CC_DESIGN_APPROVAL ( #66, ( #103 ) ) ;
#209 = DATE_AND_TIME ( #151, #113 ) ;
#210 = ORIENTED_EDGE ( 'NONE', *, *, #77, .T. ) ;
#211 = APPLICATION_PROTOCOL_DEFINITION ( 'international standard', 'config_control_design', 1994, #234 ) ;
#212 = EDGE_LOOP ( 'NONE', ( #184 ) ) ;
#213 = APPROVAL ( #39, 'UNSPECIFIED' ) ;
#214 = DATE_TIME_ROLE ( 'classification_date' ) ;
#215 = AXIS2_PLACEMENT_3D ( 'NONE', #72, #67, #124 ) ;
#216 = CARTESIAN_POINT ( 'NONE',  ( 1.396592535537253145E-15, 2.458999999999998298, 0.3999999999999999112 ) ) ;
#217 = COORDINATED_UNIVERSAL_TIME_OFFSET ( 1, 0, .AHEAD. ) ;
#218 = AXIS2_PLACEMENT_3D ( 'NONE', #101, #5, #224 ) ;
#219 = DIRECTION ( 'NONE',  ( 3.153425691349006731E-31, 1.000000000000000000, 9.031770143711729009E-17 ) ) ;
#220 = DATE_AND_TIME ( #201, #199 ) ;
#221 = DIRECTION ( 'NONE',  ( 0.0000000000000000000, 1.000000000000000000, 0.0000000000000000000 ) ) ;
#222 = APPROVAL_PERSON_ORGANIZATION ( #8, #66, #116 ) ;
#223 = EDGE_LOOP ( 'NONE', ( #210 ) ) ;
#224 = DIRECTION ( 'NONE',  ( 1.736865829337869341E-30, -1.000000000000000000, 4.974581447751235043E-16 ) ) ;
#225 = FACE_OUTER_BOUND ( 'NONE', #76, .T. ) ;
#226 = CARTESIAN_POINT ( 'NONE',  ( 4.885231259955590439E-14, -1.263712492114123682E-15, 13.99185842870425134 ) ) ;
#227 = PLANE ( 'NONE',  #165 ) ;
#228 = ADVANCED_FACE ( 'NONE', ( #121, #202 ), #125, .T. ) ;
#229 = EDGE_LOOP ( 'NONE', ( #147 ) ) ;
#230 = CARTESIAN_POINT ( 'NONE',  ( 4.607654540925311250E-14, -1.191908897014348509E-15, 13.19684710803011463 ) ) ;
#231 = FACE_OUTER_BOUND ( 'NONE', #145, .T. ) ;
#232 = EDGE_LOOP ( 'NONE', ( #129 ) ) ;
#233 = PERSON_AND_ORGANIZATION ( #185, #90 ) ;
#234 = APPLICATION_CONTEXT ( 'configuration controlled 3d designs of mechanical parts and assemblies' ) ;
#235 =( NAMED_UNIT ( * ) SI_UNIT ( $, .STERADIAN. ) SOLID_ANGLE_UNIT ( ) );
#236 = PERSON_AND_ORGANIZATION ( #185, #90 ) ;
#237 = PERSON_AND_ORGANIZATION ( #185, #90 ) ;
#238 = AXIS2_PLACEMENT_3D ( 'NONE', #46, #47, #15 ) ;
#239 = CC_DESIGN_APPROVAL ( #213, ( #123 ) ) ;
#240 = DIRECTION ( 'NONE',  ( -3.491481338843133355E-15, 9.031770143711729009E-17, -1.000000000000000000 ) ) ;
#241 = DIRECTION ( 'NONE',  ( -3.491481338843133355E-15, 9.031770143711729009E-17, -1.000000000000000000 ) ) ;
#242 = CARTESIAN_POINT ( 'NONE',  ( 2.793185071074506684E-13, -7.225416114969383207E-15, 80.00000000000000000 ) ) ;
#243 = CARTESIAN_POINT ( 'NONE',  ( 2.779219145719134403E-13, 1.999999999999988010, 79.60000000000000853 ) ) ;
ENDSEC;
END-ISO-10303-21;
