ISO-10303-21;
HEADER;
FILE_DESCRIPTION (( 'STEP AP203' ),
    '1' );
FILE_NAME ('321394.step',
    '2021-11-26T10:03:21',
    ( '' ),
    ( '' ),
    'SwSTEP 2.0',
    'SolidWorks 2019',
    '' );
FILE_SCHEMA (( 'CONFIG_CONTROL_DESIGN' ));
ENDSEC;

DATA;
#1 = PERSON_AND_ORGANIZATION_ROLE ( 'creator' ) ;
#2 = APPLICATION_PROTOCOL_DEFINITION ( 'international standard', 'config_control_design', 1994, #49 ) ;
#3 = CARTESIAN_POINT ( 'NONE',  ( 2.793185071074506684E-13, 1.599999999999987876, 80.00000000000000000 ) ) ;
#4 = ORIENTED_EDGE ( 'NONE', *, *, #154, .F. ) ;
#5 = CC_DESIGN_SECURITY_CLASSIFICATION ( #222, ( #139 ) ) ;
#6 = EDGE_LOOP ( 'NONE', ( #84 ) ) ;
#7 = AXIS2_PLACEMENT_3D ( 'NONE', #201, #181, #218 ) ;
#8 = APPROVAL_PERSON_ORGANIZATION ( #60, #24, #163 ) ;
#9 = ORIENTED_EDGE ( 'NONE', *, *, #200, .F. ) ;
#10 = DIRECTION ( 'NONE',  ( 3.491481338843133355E-15, 4.969712824223095596E-16, 1.000000000000000000 ) ) ;
#11 = PRODUCT_DEFINITION_SHAPE ( 'NONE', 'NONE',  #31 ) ;
#12 = DIRECTION ( 'NONE',  ( 0.0000000000000000000, 1.000000000000000000, 0.0000000000000000000 ) ) ;
#13 = CC_DESIGN_PERSON_AND_ORGANIZATION_ASSIGNMENT ( #43, #64, ( #31 ) ) ;
#14 = PERSON_AND_ORGANIZATION_ROLE ( 'classification_officer' ) ;
#15 = DIRECTION ( 'NONE',  ( -1.735165958518434196E-30, 1.000000000000000000, -4.969712824223094610E-16 ) ) ;
#16 = CARTESIAN_POINT ( 'NONE',  ( 1.396592535537257089E-15, 1.987885129689243810E-16, 0.4000000000000010769 ) ) ;
#17 = CARTESIAN_POINT ( 'NONE',  ( 4.610678252461588755E-14, 2.453999999999998405, 13.20550736206795683 ) ) ;
#18 = AXIS2_PLACEMENT_3D ( 'NONE', #34, #177, #15 ) ;
#19 = DIRECTION ( 'NONE',  ( -3.491481338843133355E-15, 9.031770143711729009E-17, -1.000000000000000000 ) ) ;
#20 = PERSON_AND_ORGANIZATION ( #78, #232 ) ;
#21 = DESIGN_CONTEXT ( 'detailed design', #241, 'design' ) ;
#22 = APPROVAL_DATE_TIME ( #220, #24 ) ;
#23 = DIRECTION ( 'NONE',  ( -3.153425691349006731E-31, -1.000000000000000000, -9.031770143711729009E-17 ) ) ;
#24 = APPROVAL ( #182, 'UNSPECIFIED' ) ;
#25 = CLOSED_SHELL ( 'NONE', ( #47, #117, #65, #196 ) ) ;
#26 = DIRECTION ( 'NONE',  ( 1.000000000000000000, 0.0000000000000000000, 0.0000000000000000000 ) ) ;
#27 = APPROVAL_PERSON_ORGANIZATION ( #186, #98, #224 ) ;
#28 =( NAMED_UNIT ( * ) SI_UNIT ( $, .STERADIAN. ) SOLID_ANGLE_UNIT ( ) );
#29 = ORIENTED_EDGE ( 'NONE', *, *, #228, .T. ) ;
#30 = EDGE_LOOP ( 'NONE', ( #197 ) ) ;
#31 = PRODUCT_DEFINITION ( 'UNKNOWN', '', #139, #21 ) ;
#32 = AXIS2_PLACEMENT_3D ( 'NONE', #178, #90, #114 ) ;
#33 = CIRCLE ( 'NONE', #234, 1.999999999999991784 ) ;
#34 = CARTESIAN_POINT ( 'NONE',  ( 0.0000000000000000000, 0.0000000000000000000, 0.0000000000000000000 ) ) ;
#35 = ADVANCED_BREP_SHAPE_REPRESENTATION ( '321394', ( #237, #153, #150 ), #198 ) ;
#36 = FACE_OUTER_BOUND ( 'NONE', #158, .T. ) ;
#37 = FACE_BOUND ( 'NONE', #176, .T. ) ;
#38 = DIRECTION ( 'NONE',  ( 3.491481338843133355E-15, 4.969712824223095596E-16, 1.000000000000000000 ) ) ;
#39 = FACE_OUTER_BOUND ( 'NONE', #103, .T. ) ;
#40 = EDGE_CURVE ( 'NONE', #205, #205, #214, .T. ) ;
#41 = DATE_AND_TIME ( #131, #194 ) ;
#42 = CARTESIAN_POINT ( 'NONE',  ( 2.793185071074506684E-13, -7.225416114969383207E-15, 80.00000000000000000 ) ) ;
#43 = PERSON_AND_ORGANIZATION ( #78, #232 ) ;
#44 = DATE_TIME_ROLE ( 'creation_date' ) ;
#45 = ORIENTED_EDGE ( 'NONE', *, *, #137, .T. ) ;
#46 = ADVANCED_FACE ( 'NONE', ( #108, #54 ), #120, .T. ) ;
#47 = ADVANCED_FACE ( 'NONE', ( #143 ), #238, .T. ) ;
#48 = DIRECTION ( 'NONE',  ( 0.0000000000000000000, 1.000000000000000000, 0.0000000000000000000 ) ) ;
#49 = APPLICATION_CONTEXT ( 'configuration controlled 3d designs of mechanical parts and assemblies' ) ;
#50 = FACE_OUTER_BOUND ( 'NONE', #88, .T. ) ;
#51 = EDGE_CURVE ( 'NONE', #94, #94, #33, .T. ) ;
#52 = DIRECTION ( 'NONE',  ( -3.491481338843133355E-15, -4.969712824223095596E-16, -1.000000000000000000 ) ) ;
#53 = COORDINATED_UNIVERSAL_TIME_OFFSET ( 1, 0, .AHEAD. ) ;
#54 = FACE_OUTER_BOUND ( 'NONE', #69, .T. ) ;
#55 = CC_DESIGN_APPROVAL ( #62, ( #31 ) ) ;
#56 = PRODUCT_RELATED_PRODUCT_CATEGORY ( 'detail', '', ( #107 ) ) ;
#57 = DIRECTION ( 'NONE',  ( -3.491481338843133355E-15, -4.969712824223095596E-16, -1.000000000000000000 ) ) ;
#58 = VERTEX_POINT ( 'NONE', #130 ) ;
#59 = COORDINATED_UNIVERSAL_TIME_OFFSET ( 1, 0, .AHEAD. ) ;
#60 = PERSON_AND_ORGANIZATION ( #78, #232 ) ;
#61 = DIRECTION ( 'NONE',  ( 3.491481338843133355E-15, -9.031770143711729009E-17, 1.000000000000000000 ) ) ;
#62 = APPROVAL ( #229, 'UNSPECIFIED' ) ;
#63 = CARTESIAN_POINT ( 'NONE',  ( 0.0000000000000000000, 0.0000000000000000000, 0.0000000000000000000 ) ) ;
#64 = PERSON_AND_ORGANIZATION_ROLE ( 'creator' ) ;
#65 = ADVANCED_FACE ( 'NONE', ( #50, #37 ), #170, .T. ) ;
#66 = ORIENTED_EDGE ( 'NONE', *, *, #51, .F. ) ;
#67 = CC_DESIGN_DATE_AND_TIME_ASSIGNMENT ( #190, #92, ( #222 ) ) ;
#68 = AXIS2_PLACEMENT_3D ( 'NONE', #191, #243, #149 ) ;
#69 = EDGE_LOOP ( 'NONE', ( #85 ) ) ;
#70 = ORIENTED_EDGE ( 'NONE', *, *, #154, .T. ) ;
#71 = CARTESIAN_POINT ( 'NONE',  ( 3.857377848908519372E-30, 5.490523449266541689E-31, 1.104796925589933542E-15 ) ) ;
#72 = CONICAL_SURFACE ( 'NONE', #160, 1.999999999999995337, 0.7853981633974516097 ) ;
#73 = CC_DESIGN_PERSON_AND_ORGANIZATION_ASSIGNMENT ( #20, #80, ( #107 ) ) ;
#74 = DIRECTION ( 'NONE',  ( 0.0000000000000000000, 1.000000000000000000, 0.0000000000000000000 ) ) ;
#75 = DIRECTION ( 'NONE',  ( -3.491481338843133355E-15, 9.031770143711729009E-17, -1.000000000000000000 ) ) ;
#76 = DIRECTION ( 'NONE',  ( -3.491481338843133355E-15, 9.031770143711729009E-17, -1.000000000000000000 ) ) ;
#77 = DATE_AND_TIME ( #212, #127 ) ;
#78 = PERSON ( 'UNSPECIFIED', 'UNSPECIFIED', 'UNSPECIFIED', ('UNSPECIFIED'), ('UNSPECIFIED'), ('UNSPECIFIED') ) ;
#79 = PLANE ( 'NONE',  #68 ) ;
#80 = PERSON_AND_ORGANIZATION_ROLE ( 'design_owner' ) ;
#81 = CARTESIAN_POINT ( 'NONE',  ( 1.396592535537252948E-15, 2.453999999999998849, 0.3999999999999999112 ) ) ;
#82 = CC_DESIGN_APPROVAL ( #98, ( #139 ) ) ;
#83 = ORIENTED_EDGE ( 'NONE', *, *, #146, .T. ) ;
#84 = ORIENTED_EDGE ( 'NONE', *, *, #228, .F. ) ;
#85 = ORIENTED_EDGE ( 'NONE', *, *, #137, .F. ) ;
#86 = AXIS2_PLACEMENT_3D ( 'NONE', #180, #10, #128 ) ;
#87 = LOCAL_TIME ( 11, 3, 21.00000000000000000, #240 ) ;
#88 = EDGE_LOOP ( 'NONE', ( #29 ) ) ;
#89 = DIRECTION ( 'NONE',  ( -2.511400090480511557E-30, 1.000000000000000000, -7.068962819791413617E-16 ) ) ;
#90 = DIRECTION ( 'NONE',  ( -3.491481338843133355E-15, 9.031770143711729009E-17, -1.000000000000000000 ) ) ;
#91 = CARTESIAN_POINT ( 'NONE',  ( 3.857377848908519372E-30, 5.490523449266541689E-31, 1.104796925589933542E-15 ) ) ;
#92 = DATE_TIME_ROLE ( 'classification_date' ) ;
#93 = CARTESIAN_POINT ( 'NONE',  ( 4.610678252461588755E-14, -1.192691071252908199E-15, 13.20550736206795683 ) ) ;
#94 = VERTEX_POINT ( 'NONE', #223 ) ;
#95 = LOCAL_TIME ( 11, 3, 21.00000000000000000, #53 ) ;
#96 = CARTESIAN_POINT ( 'NONE',  ( 4.610678252461587493E-14, 2.453999999999998405, 13.20550736206795328 ) ) ;
#97 = APPROVAL_DATE_TIME ( #41, #98 ) ;
#98 = APPROVAL ( #148, 'UNSPECIFIED' ) ;
#99 = APPLICATION_PROTOCOL_DEFINITION ( 'international standard', 'config_control_design', 1994, #241 ) ;
#100 = AXIS2_PLACEMENT_3D ( 'NONE', #96, #19, #167 ) ;
#101 = PERSON_AND_ORGANIZATION ( #78, #232 ) ;
#102 = EDGE_LOOP ( 'NONE', ( #213 ) ) ;
#103 = EDGE_LOOP ( 'NONE', ( #4 ) ) ;
#104 = AXIS2_PLACEMENT_3D ( 'NONE', #219, #52, #89 ) ;
#105 = ADVANCED_FACE ( 'NONE', ( #199, #183 ), #72, .T. ) ;
#106 = CYLINDRICAL_SURFACE ( 'NONE', #32, 1.999999999999993561 ) ;
#107 = PRODUCT ( '321394', '321394', '', ( #134 ) ) ;
#108 = FACE_BOUND ( 'NONE', #231, .T. ) ;
#109 = AXIS2_PLACEMENT_3D ( 'NONE', #16, #57, #129 ) ;
#110 = CYLINDRICAL_SURFACE ( 'NONE', #18, 2.453999999999995296 ) ;
#111 = DIRECTION ( 'NONE',  ( 1.735165958518434547E-30, -1.000000000000000000, 4.969712824223094610E-16 ) ) ;
#112 = CARTESIAN_POINT ( 'NONE',  ( 2.779219145719134403E-13, -7.189289034394536528E-15, 79.60000000000000853 ) ) ;
#113 = SECURITY_CLASSIFICATION_LEVEL ( 'unclassified' ) ;
#114 = DIRECTION ( 'NONE',  ( 3.153425691349006731E-31, 1.000000000000000000, 9.031770143711729009E-17 ) ) ;
#115 = CIRCLE ( 'NONE', #104, 2.453999999999991743 ) ;
#116 = PERSON_AND_ORGANIZATION ( #78, #232 ) ;
#117 = ADVANCED_FACE ( 'NONE', ( #145, #140 ), #110, .T. ) ;
#118 = PERSON_AND_ORGANIZATION ( #78, #232 ) ;
#119 = APPROVAL_ROLE ( '' ) ;
#120 = CONICAL_SURFACE ( 'NONE', #7, 2.453999999999999737, 0.5235987755982928205 ) ;
#121 = VERTEX_POINT ( 'NONE', #81 ) ;
#122 = EDGE_LOOP ( 'NONE', ( #156 ) ) ;
#123 = CIRCLE ( 'NONE', #109, 2.453999999999998849 ) ;
#124 = DIRECTION ( 'NONE',  ( -3.491481338843133355E-15, 9.031770143711729009E-17, -1.000000000000000000 ) ) ;
#125 = CARTESIAN_POINT ( 'NONE',  ( 2.793185071074506684E-13, -7.225416114969383207E-15, 80.00000000000000000 ) ) ;
#126 = AXIS2_PLACEMENT_3D ( 'NONE', #71, #235, #141 ) ;
#127 = LOCAL_TIME ( 11, 3, 21.00000000000000000, #135 ) ;
#128 = DIRECTION ( 'NONE',  ( 1.735165958518434196E-30, -1.000000000000000000, 4.969712824223095596E-16 ) ) ;
#129 = DIRECTION ( 'NONE',  ( -1.726587562205346660E-30, 1.000000000000000000, -4.859911938606582687E-16 ) ) ;
#130 = CARTESIAN_POINT ( 'NONE',  ( 4.610678252461588755E-14, 2.453999999999998405, 13.20550736206795683 ) ) ;
#131 = CALENDAR_DATE ( 2021, 26, 11 ) ;
#132 = PLANE ( 'NONE',  #175 ) ;
#133 = CIRCLE ( 'NONE', #230, 1.599999999999994982 ) ;
#134 = MECHANICAL_CONTEXT ( 'NONE', #49, 'mechanical' ) ;
#135 = COORDINATED_UNIVERSAL_TIME_OFFSET ( 1, 0, .AHEAD. ) ;
#136 = EDGE_LOOP ( 'NONE', ( #83 ) ) ;
#137 = EDGE_CURVE ( 'NONE', #58, #58, #202, .T. ) ;
#138 = FACE_OUTER_BOUND ( 'NONE', #122, .T. ) ;
#139 = PRODUCT_DEFINITION_FORMATION_WITH_SPECIFIED_SOURCE ( 'ANY', '', #107, .NOT_KNOWN. ) ;
#140 = FACE_OUTER_BOUND ( 'NONE', #6, .T. ) ;
#141 = DIRECTION ( 'NONE',  ( -1.735165958518434547E-30, 1.000000000000000000, -4.969712824223094610E-16 ) ) ;
#142 = COORDINATED_UNIVERSAL_TIME_OFFSET ( 1, 0, .AHEAD. ) ;
#143 = FACE_OUTER_BOUND ( 'NONE', #102, .T. ) ;
#144 = CC_DESIGN_APPROVAL ( #24, ( #222 ) ) ;
#145 = FACE_OUTER_BOUND ( 'NONE', #136, .T. ) ;
#146 = EDGE_CURVE ( 'NONE', #206, #206, #115, .T. ) ;
#147 = DIRECTION ( 'NONE',  ( 0.0000000000000000000, 1.000000000000000000, 0.0000000000000000000 ) ) ;
#148 = APPROVAL_STATUS ( 'not_yet_approved' ) ;
#149 = DIRECTION ( 'NONE',  ( -1.735165958518434196E-30, 1.000000000000000000, -4.969712824223095596E-16 ) ) ;
#150 = AXIS2_PLACEMENT_3D ( 'NONE', #63, #152, #26 ) ;
#151 = DATE_AND_TIME ( #210, #87 ) ;
#152 = DIRECTION ( 'NONE',  ( 0.0000000000000000000, 0.0000000000000000000, 1.000000000000000000 ) ) ;
#153 = MANIFOLD_SOLID_BREP ( 'Corps-Déplacer/Copier1[2]', #25 ) ;
#154 = EDGE_CURVE ( 'NONE', #207, #207, #133, .T. ) ;
#155 = EDGE_LOOP ( 'NONE', ( #9 ) ) ;
#156 = ORIENTED_EDGE ( 'NONE', *, *, #200, .T. ) ;
#157 = AXIS2_PLACEMENT_3D ( 'NONE', #112, #76, #147 ) ;
#158 = EDGE_LOOP ( 'NONE', ( #66 ) ) ;
#159 = DIRECTION ( 'NONE',  ( 0.0000000000000000000, 1.000000000000000000, 0.0000000000000000000 ) ) ;
#160 = AXIS2_PLACEMENT_3D ( 'NONE', #164, #236, #48 ) ;
#161 = CC_DESIGN_PERSON_AND_ORGANIZATION_ASSIGNMENT ( #118, #14, ( #222 ) ) ;
#162 = ORIENTED_EDGE ( 'NONE', *, *, #40, .F. ) ;
#163 = APPROVAL_ROLE ( '' ) ;
#164 = CARTESIAN_POINT ( 'NONE',  ( 2.779219145719134403E-13, -7.189289034394536528E-15, 79.60000000000000853 ) ) ;
#165 = ADVANCED_FACE ( 'NONE', ( #138, #36 ), #106, .T. ) ;
#166 = CALENDAR_DATE ( 2021, 26, 11 ) ;
#167 = DIRECTION ( 'NONE',  ( 3.153425691349006731E-31, 1.000000000000000000, 9.031770143711729009E-17 ) ) ;
#168 = FACE_OUTER_BOUND ( 'NONE', #30, .T. ) ;
#169 = PERSON_AND_ORGANIZATION ( #78, #232 ) ;
#170 = CONICAL_SURFACE ( 'NONE', #211, 2.223059892324148912, 0.5235987755982979275 ) ;
#171 = ADVANCED_FACE ( 'NONE', ( #239 ), #188, .T. ) ;
#172 = VERTEX_POINT ( 'NONE', #189 ) ;
#173 = EDGE_LOOP ( 'NONE', ( #70 ) ) ;
#174 = CIRCLE ( 'NONE', #157, 1.999999999999995337 ) ;
#175 = AXIS2_PLACEMENT_3D ( 'NONE', #42, #61, #23 ) ;
#176 = EDGE_LOOP ( 'NONE', ( #162 ) ) ;
#177 = DIRECTION ( 'NONE',  ( -3.491481338843133355E-15, -4.969712824223095596E-16, -1.000000000000000000 ) ) ;
#178 = CARTESIAN_POINT ( 'NONE',  ( 0.0000000000000000000, 0.0000000000000000000, 0.0000000000000000000 ) ) ;
#179 = CLOSED_SHELL ( 'NONE', ( #208, #105, #165, #46, #171 ) ) ;
#180 = CARTESIAN_POINT ( 'NONE',  ( 4.610678252461587493E-14, 6.562757928764162369E-15, 13.20550736206795328 ) ) ;
#181 = DIRECTION ( 'NONE',  ( -3.491481338843133355E-15, 9.031770143711729009E-17, -1.000000000000000000 ) ) ;
#182 = APPROVAL_STATUS ( 'not_yet_approved' ) ;
#183 = FACE_OUTER_BOUND ( 'NONE', #155, .T. ) ;
#184 = CC_DESIGN_PERSON_AND_ORGANIZATION_ASSIGNMENT ( #169, #192, ( #139 ) ) ;
#185 = CARTESIAN_POINT ( 'NONE',  ( 0.0000000000000000000, 2.223059892324148912, 0.0000000000000000000 ) ) ;
#186 = PERSON_AND_ORGANIZATION ( #78, #232 ) ;
#187 = AXIS2_PLACEMENT_3D ( 'NONE', #93, #124, #74 ) ;
#188 = PLANE ( 'NONE',  #100 ) ;
#189 = CARTESIAN_POINT ( 'NONE',  ( 2.779219145719134403E-13, 1.999999999999988010, 79.60000000000000853 ) ) ;
#190 = DATE_AND_TIME ( #166, #217 ) ;
#191 = CARTESIAN_POINT ( 'NONE',  ( -1.928688924454259686E-30, 2.223059892324148912, -5.523984627949667712E-16 ) ) ;
#192 = PERSON_AND_ORGANIZATION_ROLE ( 'design_supplier' ) ;
#193 = UNCERTAINTY_MEASURE_WITH_UNIT (LENGTH_MEASURE( 1.000000000000000082E-05 ), #195, 'distance_accuracy_value', 'NONE');
#194 = LOCAL_TIME ( 11, 3, 21.00000000000000000, #59 ) ;
#195 =( LENGTH_UNIT ( ) NAMED_UNIT ( * ) SI_UNIT ( .MILLI., .METRE. ) );
#196 = ADVANCED_FACE ( 'NONE', ( #168 ), #79, .T. ) ;
#197 = ORIENTED_EDGE ( 'NONE', *, *, #40, .T. ) ;
#198 =( GEOMETRIC_REPRESENTATION_CONTEXT ( 3 ) GLOBAL_UNCERTAINTY_ASSIGNED_CONTEXT ( ( #193 ) ) GLOBAL_UNIT_ASSIGNED_CONTEXT ( ( #195, #209, #28 ) ) REPRESENTATION_CONTEXT ( 'NONE', 'WORKASPACE' ) );
#199 = FACE_BOUND ( 'NONE', #173, .T. ) ;
#200 = EDGE_CURVE ( 'NONE', #172, #172, #174, .T. ) ;
#201 = CARTESIAN_POINT ( 'NONE',  ( 4.610678252461588755E-14, -1.192691071252908199E-15, 13.20550736206795683 ) ) ;
#202 = CIRCLE ( 'NONE', #187, 2.453999999999999737 ) ;
#203 = SHAPE_DEFINITION_REPRESENTATION ( #11, #35 ) ;
#204 = DIRECTION ( 'NONE',  ( -3.491481338843133355E-15, 9.031770143711729009E-17, -1.000000000000000000 ) ) ;
#205 = VERTEX_POINT ( 'NONE', #185 ) ;
#206 = VERTEX_POINT ( 'NONE', #17 ) ;
#207 = VERTEX_POINT ( 'NONE', #3 ) ;
#208 = ADVANCED_FACE ( 'NONE', ( #39 ), #132, .T. ) ;
#209 =( NAMED_UNIT ( * ) PLANE_ANGLE_UNIT ( ) SI_UNIT ( $, .RADIAN. ) );
#210 = CALENDAR_DATE ( 2021, 26, 11 ) ;
#211 = AXIS2_PLACEMENT_3D ( 'NONE', #91, #38, #111 ) ;
#212 = CALENDAR_DATE ( 2021, 26, 11 ) ;
#213 = ORIENTED_EDGE ( 'NONE', *, *, #146, .F. ) ;
#214 = CIRCLE ( 'NONE', #126, 2.223059892324148912 ) ;
#215 = CC_DESIGN_PERSON_AND_ORGANIZATION_ASSIGNMENT ( #116, #1, ( #139 ) ) ;
#216 = ORIENTED_EDGE ( 'NONE', *, *, #51, .T. ) ;
#217 = LOCAL_TIME ( 11, 3, 21.00000000000000000, #142 ) ;
#218 = DIRECTION ( 'NONE',  ( 0.0000000000000000000, 1.000000000000000000, 0.0000000000000000000 ) ) ;
#219 = CARTESIAN_POINT ( 'NONE',  ( 4.610678252461589386E-14, 6.562757928764163947E-15, 13.20550736206795861 ) ) ;
#220 = DATE_AND_TIME ( #242, #95 ) ;
#221 = CARTESIAN_POINT ( 'NONE',  ( 4.885231259955590439E-14, -1.263712492114123682E-15, 13.99185842870425134 ) ) ;
#222 = SECURITY_CLASSIFICATION ( '', '', #113 ) ;
#223 = CARTESIAN_POINT ( 'NONE',  ( 4.885231259955590439E-14, 1.999999999999990452, 13.99185842870425134 ) ) ;
#224 = APPROVAL_ROLE ( '' ) ;
#225 = CC_DESIGN_DATE_AND_TIME_ASSIGNMENT ( #77, #44, ( #31 ) ) ;
#226 = APPROVAL_PERSON_ORGANIZATION ( #101, #62, #119 ) ;
#227 = APPROVAL_DATE_TIME ( #151, #62 ) ;
#228 = EDGE_CURVE ( 'NONE', #121, #121, #123, .T. ) ;
#229 = APPROVAL_STATUS ( 'not_yet_approved' ) ;
#230 = AXIS2_PLACEMENT_3D ( 'NONE', #125, #75, #159 ) ;
#231 = EDGE_LOOP ( 'NONE', ( #216 ) ) ;
#232 = ORGANIZATION ( 'UNSPECIFIED', 'UNSPECIFIED', '' ) ;
#233 = EDGE_LOOP ( 'NONE', ( #45 ) ) ;
#234 = AXIS2_PLACEMENT_3D ( 'NONE', #221, #204, #12 ) ;
#235 = DIRECTION ( 'NONE',  ( -3.491481338843133355E-15, -4.969712824223095596E-16, -1.000000000000000000 ) ) ;
#236 = DIRECTION ( 'NONE',  ( -3.491481338843133355E-15, 9.031770143711729009E-17, -1.000000000000000000 ) ) ;
#237 = MANIFOLD_SOLID_BREP ( 'Corps-Déplacer/Copier1[1]', #179 ) ;
#238 = PLANE ( 'NONE',  #86 ) ;
#239 = FACE_OUTER_BOUND ( 'NONE', #233, .T. ) ;
#240 = COORDINATED_UNIVERSAL_TIME_OFFSET ( 1, 0, .AHEAD. ) ;
#241 = APPLICATION_CONTEXT ( 'configuration controlled 3d designs of mechanical parts and assemblies' ) ;
#242 = CALENDAR_DATE ( 2021, 26, 11 ) ;
#243 = DIRECTION ( 'NONE',  ( -3.491481338843133355E-15, -4.969712824223095596E-16, -1.000000000000000000 ) ) ;
ENDSEC;
END-ISO-10303-21;
