ISO-10303-21;
HEADER;
FILE_DESCRIPTION (( 'STEP AP203' ),
    '1' );
FILE_NAME ('321393.step',
    '2021-11-26T10:03:21',
    ( '' ),
    ( '' ),
    'SwSTEP 2.0',
    'SolidWorks 2019',
    '' );
FILE_SCHEMA (( 'CONFIG_CONTROL_DESIGN' ));
ENDSEC;

DATA;
#1 = FACE_OUTER_BOUND ( 'NONE', #167, .T. ) ;
#2 = AXIS2_PLACEMENT_3D ( 'NONE', #93, #158, #41 ) ;
#3 = CARTESIAN_POINT ( 'NONE',  ( 0.0000000000000000000, 0.0000000000000000000, 0.0000000000000000000 ) ) ;
#4 = PLANE ( 'NONE',  #2 ) ;
#5 = DIRECTION ( 'NONE',  ( -3.491481338843133355E-15, 9.031770143711729009E-17, -1.000000000000000000 ) ) ;
#6 =( GEOMETRIC_REPRESENTATION_CONTEXT ( 3 ) GLOBAL_UNCERTAINTY_ASSIGNED_CONTEXT ( ( #91 ) ) GLOBAL_UNIT_ASSIGNED_CONTEXT ( ( #217, #216, #183 ) ) REPRESENTATION_CONTEXT ( 'NONE', 'WORKASPACE' ) );
#7 = VERTEX_POINT ( 'NONE', #160 ) ;
#8 = ORGANIZATION ( 'UNSPECIFIED', 'UNSPECIFIED', '' ) ;
#9 = PERSON_AND_ORGANIZATION ( #230, #8 ) ;
#10 = PERSON_AND_ORGANIZATION ( #230, #8 ) ;
#11 = CC_DESIGN_PERSON_AND_ORGANIZATION_ASSIGNMENT ( #31, #64, ( #122 ) ) ;
#12 = DATE_AND_TIME ( #148, #129 ) ;
#13 = CONICAL_SURFACE ( 'NONE', #202, 1.999999999999995337, 0.7853981633974516097 ) ;
#14 = SECURITY_CLASSIFICATION_LEVEL ( 'unclassified' ) ;
#15 = ORIENTED_EDGE ( 'NONE', *, *, #18, .F. ) ;
#16 = EDGE_LOOP ( 'NONE', ( #40 ) ) ;
#17 = ORIENTED_EDGE ( 'NONE', *, *, #153, .F. ) ;
#18 = EDGE_CURVE ( 'NONE', #51, #51, #26, .T. ) ;
#19 = DIRECTION ( 'NONE',  ( 1.733468315809545842E-30, -1.000000000000000000, 4.964850582257195021E-16 ) ) ;
#20 = MECHANICAL_CONTEXT ( 'NONE', #190, 'mechanical' ) ;
#21 = AXIS2_PLACEMENT_3D ( 'NONE', #172, #22, #225 ) ;
#22 = DIRECTION ( 'NONE',  ( -3.491481338843133355E-15, 9.031770143711729009E-17, -1.000000000000000000 ) ) ;
#23 = DIRECTION ( 'NONE',  ( 1.000000000000000000, 0.0000000000000000000, 0.0000000000000000000 ) ) ;
#24 = ADVANCED_FACE ( 'NONE', ( #177 ), #74, .T. ) ;
#25 = DIRECTION ( 'NONE',  ( -1.733468315809546192E-30, 1.000000000000000000, -4.964850582257195021E-16 ) ) ;
#26 = CIRCLE ( 'NONE', #155, 2.448999999999998511 ) ;
#27 = DIRECTION ( 'NONE',  ( -3.491481338843133355E-15, -4.964850582257195021E-16, -1.000000000000000000 ) ) ;
#28 = FACE_BOUND ( 'NONE', #171, .T. ) ;
#29 = CARTESIAN_POINT ( 'NONE',  ( 6.842277657836020854E-46, 2.218059892324148574, 0.0000000000000000000 ) ) ;
#30 = COORDINATED_UNIVERSAL_TIME_OFFSET ( 1, 0, .AHEAD. ) ;
#31 = PERSON_AND_ORGANIZATION ( #230, #8 ) ;
#32 = APPROVAL_ROLE ( '' ) ;
#33 = APPLICATION_PROTOCOL_DEFINITION ( 'international standard', 'config_control_design', 1994, #190 ) ;
#34 = CONICAL_SURFACE ( 'NONE', #21, 2.448999999999999400, 0.5235987755982929315 ) ;
#35 = ORIENTED_EDGE ( 'NONE', *, *, #210, .T. ) ;
#36 = EDGE_LOOP ( 'NONE', ( #35 ) ) ;
#37 = AXIS2_PLACEMENT_3D ( 'NONE', #228, #27, #25 ) ;
#38 = CC_DESIGN_APPROVAL ( #145, ( #185 ) ) ;
#39 = EDGE_CURVE ( 'NONE', #7, #7, #86, .T. ) ;
#40 = ORIENTED_EDGE ( 'NONE', *, *, #39, .T. ) ;
#41 = DIRECTION ( 'NONE',  ( -3.153425691349006731E-31, -1.000000000000000000, -9.031770143711729009E-17 ) ) ;
#42 = APPLICATION_PROTOCOL_DEFINITION ( 'international standard', 'config_control_design', 1994, #89 ) ;
#43 = ADVANCED_FACE ( 'NONE', ( #96 ), #194, .T. ) ;
#44 = CIRCLE ( 'NONE', #223, 1.999999999999995337 ) ;
#45 = DIRECTION ( 'NONE',  ( -1.730112649102458580E-30, 1.000000000000000000, -4.869834176129258851E-16 ) ) ;
#46 = CARTESIAN_POINT ( 'NONE',  ( 4.613701963997866890E-14, 6.560636778286707548E-15, 13.21416761610580437 ) ) ;
#47 = DIRECTION ( 'NONE',  ( -1.733468315809546192E-30, 1.000000000000000000, -4.964850582257195021E-16 ) ) ;
#48 = APPROVAL_DATE_TIME ( #125, #145 ) ;
#49 = VERTEX_POINT ( 'NONE', #98 ) ;
#50 = APPROVAL_DATE_TIME ( #99, #66 ) ;
#51 = VERTEX_POINT ( 'NONE', #193 ) ;
#52 = PERSON_AND_ORGANIZATION_ROLE ( 'creator' ) ;
#53 = ADVANCED_FACE ( 'NONE', ( #78, #62 ), #140, .T. ) ;
#54 = CLOSED_SHELL ( 'NONE', ( #229, #175, #163, #24 ) ) ;
#55 = ORIENTED_EDGE ( 'NONE', *, *, #210, .F. ) ;
#56 = CC_DESIGN_DATE_AND_TIME_ASSIGNMENT ( #12, #214, ( #185 ) ) ;
#57 = EDGE_LOOP ( 'NONE', ( #237 ) ) ;
#58 = DIRECTION ( 'NONE',  ( 0.0000000000000000000, 1.000000000000000000, 0.0000000000000000000 ) ) ;
#59 = FACE_BOUND ( 'NONE', #16, .T. ) ;
#60 = DIRECTION ( 'NONE',  ( -3.491481338843133355E-15, 9.031770143711729009E-17, -1.000000000000000000 ) ) ;
#61 = LOCAL_TIME ( 11, 3, 21.00000000000000000, #30 ) ;
#62 = FACE_OUTER_BOUND ( 'NONE', #149, .T. ) ;
#63 = ADVANCED_FACE ( 'NONE', ( #28, #77 ), #34, .T. ) ;
#64 = PERSON_AND_ORGANIZATION_ROLE ( 'design_supplier' ) ;
#65 = DIRECTION ( 'NONE',  ( -3.491481338843133355E-15, 9.031770143711729009E-17, -1.000000000000000000 ) ) ;
#66 = APPROVAL ( #162, 'UNSPECIFIED' ) ;
#67 = APPROVAL_ROLE ( '' ) ;
#68 = DATE_AND_TIME ( #100, #219 ) ;
#69 = APPROVAL_PERSON_ORGANIZATION ( #200, #145, #144 ) ;
#70 = EDGE_LOOP ( 'NONE', ( #186 ) ) ;
#71 = CC_DESIGN_APPROVAL ( #240, ( #122 ) ) ;
#72 = ORIENTED_EDGE ( 'NONE', *, *, #83, .F. ) ;
#73 = AXIS2_PLACEMENT_3D ( 'NONE', #109, #60, #224 ) ;
#74 = PLANE ( 'NONE',  #37 ) ;
#75 = DIRECTION ( 'NONE',  ( 3.153425691349006731E-31, 1.000000000000000000, 9.031770143711729009E-17 ) ) ;
#76 = FACE_OUTER_BOUND ( 'NONE', #242, .T. ) ;
#77 = FACE_OUTER_BOUND ( 'NONE', #239, .T. ) ;
#78 = FACE_OUTER_BOUND ( 'NONE', #70, .T. ) ;
#79 = EDGE_CURVE ( 'NONE', #80, #80, #44, .T. ) ;
#80 = VERTEX_POINT ( 'NONE', #119 ) ;
#81 = DIRECTION ( 'NONE',  ( 1.733468315809546192E-30, -1.000000000000000000, 4.964850582257195021E-16 ) ) ;
#82 = AXIS2_PLACEMENT_3D ( 'NONE', #199, #213, #81 ) ;
#83 = EDGE_CURVE ( 'NONE', #159, #159, #168, .T. ) ;
#84 = CALENDAR_DATE ( 2021, 26, 11 ) ;
#85 = ADVANCED_BREP_SHAPE_REPRESENTATION ( '321393', ( #243, #156, #146 ), #6 ) ;
#86 = CIRCLE ( 'NONE', #73, 1.599999999999994982 ) ;
#87 = DIRECTION ( 'NONE',  ( 0.0000000000000000000, 1.000000000000000000, 0.0000000000000000000 ) ) ;
#88 = COORDINATED_UNIVERSAL_TIME_OFFSET ( 1, 0, .AHEAD. ) ;
#89 = APPLICATION_CONTEXT ( 'configuration controlled 3d designs of mechanical parts and assemblies' ) ;
#90 = ORIENTED_EDGE ( 'NONE', *, *, #18, .T. ) ;
#91 = UNCERTAINTY_MEASURE_WITH_UNIT (LENGTH_MEASURE( 1.000000000000000082E-05 ), #217, 'distance_accuracy_value', 'NONE');
#92 = CARTESIAN_POINT ( 'NONE',  ( 3.844936545911845870E-30, 5.467460254287802982E-31, 1.101233594788688118E-15 ) ) ;
#93 = CARTESIAN_POINT ( 'NONE',  ( 2.793185071074506684E-13, -7.225416114969383207E-15, 80.00000000000000000 ) ) ;
#94 = DIRECTION ( 'NONE',  ( -1.733468315809546192E-30, 1.000000000000000000, -4.964850582257195021E-16 ) ) ;
#95 = CC_DESIGN_PERSON_AND_ORGANIZATION_ASSIGNMENT ( #10, #165, ( #185 ) ) ;
#96 = FACE_OUTER_BOUND ( 'NONE', #36, .T. ) ;
#97 = SECURITY_CLASSIFICATION ( '', '', #14 ) ;
#98 = CARTESIAN_POINT ( 'NONE',  ( 4.613701963997866259E-14, 2.448999999999998067, 13.21416761610580259 ) ) ;
#99 = DATE_AND_TIME ( #101, #241 ) ;
#100 = CALENDAR_DATE ( 2021, 26, 11 ) ;
#101 = CALENDAR_DATE ( 2021, 26, 11 ) ;
#102 = AXIS2_PLACEMENT_3D ( 'NONE', #176, #5, #212 ) ;
#103 = ADVANCED_FACE ( 'NONE', ( #59, #1 ), #13, .T. ) ;
#104 = DATE_AND_TIME ( #84, #179 ) ;
#105 = CC_DESIGN_DATE_AND_TIME_ASSIGNMENT ( #68, #142, ( #97 ) ) ;
#106 = EDGE_LOOP ( 'NONE', ( #17 ) ) ;
#107 = AXIS2_PLACEMENT_3D ( 'NONE', #226, #189, #47 ) ;
#108 = ORIENTED_EDGE ( 'NONE', *, *, #79, .F. ) ;
#109 = CARTESIAN_POINT ( 'NONE',  ( 2.793185071074506684E-13, -7.225416114969383207E-15, 80.00000000000000000 ) ) ;
#110 = AXIS2_PLACEMENT_3D ( 'NONE', #192, #65, #87 ) ;
#111 = CYLINDRICAL_SURFACE ( 'NONE', #141, 2.448999999999994959 ) ;
#112 = PLANE ( 'NONE',  #82 ) ;
#113 = DIRECTION ( 'NONE',  ( -3.491481338843133355E-15, -4.964850582257195021E-16, -1.000000000000000000 ) ) ;
#114 = CC_DESIGN_PERSON_AND_ORGANIZATION_ASSIGNMENT ( #135, #205, ( #123 ) ) ;
#115 = FACE_BOUND ( 'NONE', #131, .T. ) ;
#116 = PRODUCT_DEFINITION_SHAPE ( 'NONE', 'NONE',  #185 ) ;
#117 = DIRECTION ( 'NONE',  ( -3.491481338843133355E-15, 9.031770143711729009E-17, -1.000000000000000000 ) ) ;
#118 = CC_DESIGN_APPROVAL ( #66, ( #97 ) ) ;
#119 = CARTESIAN_POINT ( 'NONE',  ( 2.779219145719134403E-13, 1.999999999999988010, 79.60000000000000853 ) ) ;
#120 = PERSON_AND_ORGANIZATION ( #230, #8 ) ;
#121 = VERTEX_POINT ( 'NONE', #184 ) ;
#122 = PRODUCT_DEFINITION_FORMATION_WITH_SPECIFIED_SOURCE ( 'ANY', '', #123, .NOT_KNOWN. ) ;
#123 = PRODUCT ( '321393', '321393', '', ( #20 ) ) ;
#124 = CARTESIAN_POINT ( 'NONE',  ( 0.0000000000000000000, 0.0000000000000000000, 0.0000000000000000000 ) ) ;
#125 = DATE_AND_TIME ( #127, #61 ) ;
#126 = CC_DESIGN_PERSON_AND_ORGANIZATION_ASSIGNMENT ( #120, #143, ( #97 ) ) ;
#127 = CALENDAR_DATE ( 2021, 26, 11 ) ;
#128 = ORIENTED_EDGE ( 'NONE', *, *, #153, .T. ) ;
#129 = LOCAL_TIME ( 11, 3, 21.00000000000000000, #235 ) ;
#130 = ADVANCED_FACE ( 'NONE', ( #152 ), #4, .T. ) ;
#131 = EDGE_LOOP ( 'NONE', ( #72 ) ) ;
#132 = CLOSED_SHELL ( 'NONE', ( #130, #103, #53, #63, #43 ) ) ;
#133 = AXIS2_PLACEMENT_3D ( 'NONE', #139, #178, #211 ) ;
#134 = DESIGN_CONTEXT ( 'detailed design', #89, 'design' ) ;
#135 = PERSON_AND_ORGANIZATION ( #230, #8 ) ;
#136 = DIRECTION ( 'NONE',  ( -3.491481338843133355E-15, -4.964850582257195021E-16, -1.000000000000000000 ) ) ;
#137 = DIRECTION ( 'NONE',  ( 3.491481338843133355E-15, 4.964850582257195021E-16, 1.000000000000000000 ) ) ;
#138 = CARTESIAN_POINT ( 'NONE',  ( 2.779219145719134403E-13, -7.189289034394536528E-15, 79.60000000000000853 ) ) ;
#139 = CARTESIAN_POINT ( 'NONE',  ( 4.885231259955590439E-14, -1.263712492114123682E-15, 13.99185842870425134 ) ) ;
#140 = CYLINDRICAL_SURFACE ( 'NONE', #170, 1.999999999999993561 ) ;
#141 = AXIS2_PLACEMENT_3D ( 'NONE', #154, #113, #94 ) ;
#142 = DATE_TIME_ROLE ( 'classification_date' ) ;
#143 = PERSON_AND_ORGANIZATION_ROLE ( 'classification_officer' ) ;
#144 = APPROVAL_ROLE ( '' ) ;
#145 = APPROVAL ( #161, 'UNSPECIFIED' ) ;
#146 = AXIS2_PLACEMENT_3D ( 'NONE', #124, #232, #23 ) ;
#147 = CARTESIAN_POINT ( 'NONE',  ( 4.885231259955590439E-14, 1.999999999999990452, 13.99185842870425134 ) ) ;
#148 = CALENDAR_DATE ( 2021, 26, 11 ) ;
#149 = EDGE_LOOP ( 'NONE', ( #203 ) ) ;
#150 = CIRCLE ( 'NONE', #173, 2.448999999999991406 ) ;
#151 = DIRECTION ( 'NONE',  ( -3.491481338843133355E-15, 9.031770143711729009E-17, -1.000000000000000000 ) ) ;
#152 = FACE_OUTER_BOUND ( 'NONE', #201, .T. ) ;
#153 = EDGE_CURVE ( 'NONE', #49, #49, #150, .T. ) ;
#154 = CARTESIAN_POINT ( 'NONE',  ( 0.0000000000000000000, 0.0000000000000000000, 0.0000000000000000000 ) ) ;
#155 = AXIS2_PLACEMENT_3D ( 'NONE', #169, #208, #45 ) ;
#156 = MANIFOLD_SOLID_BREP ( 'Corps-Déplacer/Copier1[2]', #54 ) ;
#157 = APPROVAL_PERSON_ORGANIZATION ( #233, #66, #67 ) ;
#158 = DIRECTION ( 'NONE',  ( 3.491481338843133355E-15, -9.031770143711729009E-17, 1.000000000000000000 ) ) ;
#159 = VERTEX_POINT ( 'NONE', #29 ) ;
#160 = CARTESIAN_POINT ( 'NONE',  ( 2.793185071074506684E-13, 1.599999999999987876, 80.00000000000000000 ) ) ;
#161 = APPROVAL_STATUS ( 'not_yet_approved' ) ;
#162 = APPROVAL_STATUS ( 'not_yet_approved' ) ;
#163 = ADVANCED_FACE ( 'NONE', ( #209, #115 ), #207, .T. ) ;
#164 = APPROVAL_DATE_TIME ( #104, #240 ) ;
#165 = PERSON_AND_ORGANIZATION_ROLE ( 'creator' ) ;
#166 = PERSON_AND_ORGANIZATION ( #230, #8 ) ;
#167 = EDGE_LOOP ( 'NONE', ( #108 ) ) ;
#168 = CIRCLE ( 'NONE', #107, 2.218059892324148574 ) ;
#169 = CARTESIAN_POINT ( 'NONE',  ( 1.396592535537257089E-15, 1.985940232902883531E-16, 0.4000000000000010769 ) ) ;
#170 = AXIS2_PLACEMENT_3D ( 'NONE', #3, #117, #75 ) ;
#171 = EDGE_LOOP ( 'NONE', ( #222 ) ) ;
#172 = CARTESIAN_POINT ( 'NONE',  ( 4.613701963997866259E-14, -1.193473245491467693E-15, 13.21416761610580259 ) ) ;
#173 = AXIS2_PLACEMENT_3D ( 'NONE', #46, #136, #191 ) ;
#174 = CARTESIAN_POINT ( 'NONE',  ( 2.779219145719134403E-13, -7.189289034394536528E-15, 79.60000000000000853 ) ) ;
#175 = ADVANCED_FACE ( 'NONE', ( #76, #206 ), #111, .T. ) ;
#176 = CARTESIAN_POINT ( 'NONE',  ( 4.613701963997866890E-14, 2.448999999999998067, 13.21416761610580437 ) ) ;
#177 = FACE_OUTER_BOUND ( 'NONE', #57, .T. ) ;
#178 = DIRECTION ( 'NONE',  ( -3.491481338843133355E-15, 9.031770143711729009E-17, -1.000000000000000000 ) ) ;
#179 = LOCAL_TIME ( 11, 3, 21.00000000000000000, #234 ) ;
#180 = APPROVAL_STATUS ( 'not_yet_approved' ) ;
#181 = CIRCLE ( 'NONE', #110, 2.448999999999999400 ) ;
#182 = EDGE_LOOP ( 'NONE', ( #15 ) ) ;
#183 =( NAMED_UNIT ( * ) SI_UNIT ( $, .STERADIAN. ) SOLID_ANGLE_UNIT ( ) );
#184 = CARTESIAN_POINT ( 'NONE',  ( 4.613701963997866259E-14, 2.448999999999998067, 13.21416761610580259 ) ) ;
#185 = PRODUCT_DEFINITION ( 'UNKNOWN', '', #122, #134 ) ;
#186 = ORIENTED_EDGE ( 'NONE', *, *, #79, .T. ) ;
#187 = DIRECTION ( 'NONE',  ( 0.0000000000000000000, 1.000000000000000000, 0.0000000000000000000 ) ) ;
#188 = CC_DESIGN_SECURITY_CLASSIFICATION ( #97, ( #122 ) ) ;
#189 = DIRECTION ( 'NONE',  ( -3.491481338843133355E-15, -4.964850582257195021E-16, -1.000000000000000000 ) ) ;
#190 = APPLICATION_CONTEXT ( 'configuration controlled 3d designs of mechanical parts and assemblies' ) ;
#191 = DIRECTION ( 'NONE',  ( -2.516527489603583505E-30, 1.000000000000000000, -7.083395165278942763E-16 ) ) ;
#192 = CARTESIAN_POINT ( 'NONE',  ( 4.613701963997866259E-14, -1.193473245491467693E-15, 13.21416761610580259 ) ) ;
#193 = CARTESIAN_POINT ( 'NONE',  ( 1.396592535537252948E-15, 2.448999999999998511, 0.3999999999999999112 ) ) ;
#194 = PLANE ( 'NONE',  #102 ) ;
#195 = COORDINATED_UNIVERSAL_TIME_OFFSET ( 1, 0, .AHEAD. ) ;
#196 = SHAPE_DEFINITION_REPRESENTATION ( #116, #85 ) ;
#197 = CC_DESIGN_PERSON_AND_ORGANIZATION_ASSIGNMENT ( #166, #52, ( #122 ) ) ;
#198 = AXIS2_PLACEMENT_3D ( 'NONE', #92, #137, #19 ) ;
#199 = CARTESIAN_POINT ( 'NONE',  ( 4.613701963997866890E-14, 6.560636778286706759E-15, 13.21416761610580437 ) ) ;
#200 = PERSON_AND_ORGANIZATION ( #230, #8 ) ;
#201 = EDGE_LOOP ( 'NONE', ( #221 ) ) ;
#202 = AXIS2_PLACEMENT_3D ( 'NONE', #174, #151, #58 ) ;
#203 = ORIENTED_EDGE ( 'NONE', *, *, #236, .F. ) ;
#204 = DIRECTION ( 'NONE',  ( -3.491481338843133355E-15, 9.031770143711729009E-17, -1.000000000000000000 ) ) ;
#205 = PERSON_AND_ORGANIZATION_ROLE ( 'design_owner' ) ;
#206 = FACE_OUTER_BOUND ( 'NONE', #182, .T. ) ;
#207 = CONICAL_SURFACE ( 'NONE', #198, 2.218059892324148574, 0.5235987755982979275 ) ;
#208 = DIRECTION ( 'NONE',  ( -3.491481338843133355E-15, -4.964850582257195021E-16, -1.000000000000000000 ) ) ;
#209 = FACE_OUTER_BOUND ( 'NONE', #218, .T. ) ;
#210 = EDGE_CURVE ( 'NONE', #121, #121, #181, .T. ) ;
#211 = DIRECTION ( 'NONE',  ( 0.0000000000000000000, 1.000000000000000000, 0.0000000000000000000 ) ) ;
#212 = DIRECTION ( 'NONE',  ( 3.153425691349006731E-31, 1.000000000000000000, 9.031770143711729009E-17 ) ) ;
#213 = DIRECTION ( 'NONE',  ( 3.491481338843133355E-15, 4.964850582257195021E-16, 1.000000000000000000 ) ) ;
#214 = DATE_TIME_ROLE ( 'creation_date' ) ;
#215 = APPROVAL_PERSON_ORGANIZATION ( #9, #240, #32 ) ;
#216 =( NAMED_UNIT ( * ) PLANE_ANGLE_UNIT ( ) SI_UNIT ( $, .RADIAN. ) );
#217 =( LENGTH_UNIT ( ) NAMED_UNIT ( * ) SI_UNIT ( .MILLI., .METRE. ) );
#218 = EDGE_LOOP ( 'NONE', ( #90 ) ) ;
#219 = LOCAL_TIME ( 11, 3, 21.00000000000000000, #88 ) ;
#220 = PRODUCT_RELATED_PRODUCT_CATEGORY ( 'detail', '', ( #123 ) ) ;
#221 = ORIENTED_EDGE ( 'NONE', *, *, #39, .F. ) ;
#222 = ORIENTED_EDGE ( 'NONE', *, *, #236, .T. ) ;
#223 = AXIS2_PLACEMENT_3D ( 'NONE', #138, #204, #187 ) ;
#224 = DIRECTION ( 'NONE',  ( 0.0000000000000000000, 1.000000000000000000, 0.0000000000000000000 ) ) ;
#225 = DIRECTION ( 'NONE',  ( 0.0000000000000000000, 1.000000000000000000, 0.0000000000000000000 ) ) ;
#226 = CARTESIAN_POINT ( 'NONE',  ( 3.844936545911845870E-30, 5.467460254287802982E-31, 1.101233594788688118E-15 ) ) ;
#227 = CIRCLE ( 'NONE', #133, 1.999999999999991784 ) ;
#228 = CARTESIAN_POINT ( 'NONE',  ( -1.922468272955922935E-30, 2.218059892324148574, -5.506167973943440589E-16 ) ) ;
#229 = ADVANCED_FACE ( 'NONE', ( #231 ), #112, .T. ) ;
#230 = PERSON ( 'UNSPECIFIED', 'UNSPECIFIED', 'UNSPECIFIED', ('UNSPECIFIED'), ('UNSPECIFIED'), ('UNSPECIFIED') ) ;
#231 = FACE_OUTER_BOUND ( 'NONE', #106, .T. ) ;
#232 = DIRECTION ( 'NONE',  ( 0.0000000000000000000, 0.0000000000000000000, 1.000000000000000000 ) ) ;
#233 = PERSON_AND_ORGANIZATION ( #230, #8 ) ;
#234 = COORDINATED_UNIVERSAL_TIME_OFFSET ( 1, 0, .AHEAD. ) ;
#235 = COORDINATED_UNIVERSAL_TIME_OFFSET ( 1, 0, .AHEAD. ) ;
#236 = EDGE_CURVE ( 'NONE', #238, #238, #227, .T. ) ;
#237 = ORIENTED_EDGE ( 'NONE', *, *, #83, .T. ) ;
#238 = VERTEX_POINT ( 'NONE', #147 ) ;
#239 = EDGE_LOOP ( 'NONE', ( #55 ) ) ;
#240 = APPROVAL ( #180, 'UNSPECIFIED' ) ;
#241 = LOCAL_TIME ( 11, 3, 21.00000000000000000, #195 ) ;
#242 = EDGE_LOOP ( 'NONE', ( #128 ) ) ;
#243 = MANIFOLD_SOLID_BREP ( 'Corps-Déplacer/Copier1[1]', #132 ) ;
ENDSEC;
END-ISO-10303-21;
