ISO-10303-21;
HEADER;
FILE_DESCRIPTION (( 'STEP AP203' ),
    '1' );
FILE_NAME ('321392.step',
    '2021-11-26T10:03:20',
    ( '' ),
    ( '' ),
    'SwSTEP 2.0',
    'SolidWorks 2019',
    '' );
FILE_SCHEMA (( 'CONFIG_CONTROL_DESIGN' ));
ENDSEC;

DATA;
#1 = CARTESIAN_POINT ( 'NONE',  ( 4.616725675534143763E-14, 6.558515627809263770E-15, 13.22282787014364835 ) ) ;
#2 = DATE_AND_TIME ( #99, #42 ) ;
#3 = MECHANICAL_CONTEXT ( 'NONE', #136, 'mechanical' ) ;
#4 = CLOSED_SHELL ( 'NONE', ( #166, #71, #80, #104 ) ) ;
#5 = CARTESIAN_POINT ( 'NONE',  ( 4.616725675534143132E-14, 2.443999999999998174, 13.22282787014364658 ) ) ;
#6 =( NAMED_UNIT ( * ) PLANE_ANGLE_UNIT ( ) SI_UNIT ( $, .RADIAN. ) );
#7 = CONICAL_SURFACE ( 'NONE', #178, 2.443999999999999506, 0.5235987755982925984 ) ;
#8 = DIRECTION ( 'NONE',  ( 3.491481338843133355E-15, -9.031770143711729009E-17, 1.000000000000000000 ) ) ;
#9 = ORIENTED_EDGE ( 'NONE', *, *, #176, .T. ) ;
#10 = APPROVAL_DATE_TIME ( #105, #123 ) ;
#11 = ORIENTED_EDGE ( 'NONE', *, *, #237, .T. ) ;
#12 = DIRECTION ( 'NONE',  ( -3.491481338843133355E-15, -4.959994709314789403E-16, -1.000000000000000000 ) ) ;
#13 = APPROVAL ( #156, 'UNSPECIFIED' ) ;
#14 = PERSON_AND_ORGANIZATION_ROLE ( 'classification_officer' ) ;
#15 = CYLINDRICAL_SURFACE ( 'NONE', #239, 1.999999999999993561 ) ;
#16 = PERSON_AND_ORGANIZATION ( #214, #199 ) ;
#17 = PLANE ( 'NONE',  #68 ) ;
#18 = ADVANCED_FACE ( 'NONE', ( #89 ), #126, .T. ) ;
#19 = CIRCLE ( 'NONE', #155, 2.443999999999991957 ) ;
#20 = DESIGN_CONTEXT ( 'detailed design', #53, 'design' ) ;
#21 = LOCAL_TIME ( 11, 3, 20.00000000000000000, #193 ) ;
#22 = DIRECTION ( 'NONE',  ( 0.0000000000000000000, 1.000000000000000000, 0.0000000000000000000 ) ) ;
#23 = DIRECTION ( 'NONE',  ( -1.731772896833325418E-30, 1.000000000000000000, -4.959994709314788417E-16 ) ) ;
#24 = AXIS2_PLACEMENT_3D ( 'NONE', #79, #57, #186 ) ;
#25 = CC_DESIGN_APPROVAL ( #123, ( #146 ) ) ;
#26 = PRODUCT_DEFINITION_FORMATION_WITH_SPECIFIED_SOURCE ( 'ANY', '', #216, .NOT_KNOWN. ) ;
#27 = PERSON_AND_ORGANIZATION_ROLE ( 'design_owner' ) ;
#28 = LOCAL_TIME ( 11, 3, 20.00000000000000000, #75 ) ;
#29 = APPLICATION_PROTOCOL_DEFINITION ( 'international standard', 'config_control_design', 1994, #136 ) ;
#30 = CLOSED_SHELL ( 'NONE', ( #18, #159, #201, #190, #185 ) ) ;
#31 = CALENDAR_DATE ( 2021, 26, 11 ) ;
#32 = AXIS2_PLACEMENT_3D ( 'NONE', #33, #124, #196 ) ;
#33 = CARTESIAN_POINT ( 'NONE',  ( 3.832517140595838256E-30, 5.444469809771953893E-31, 1.097676535732453163E-15 ) ) ;
#34 = ORIENTED_EDGE ( 'NONE', *, *, #94, .F. ) ;
#35 = DIRECTION ( 'NONE',  ( -1.733652159432047011E-30, 1.000000000000000000, -4.879797012005139152E-16 ) ) ;
#36 = DIRECTION ( 'NONE',  ( -3.491481338843133355E-15, -4.959994709314789403E-16, -1.000000000000000000 ) ) ;
#37 = DIRECTION ( 'NONE',  ( 0.0000000000000000000, 1.000000000000000000, 0.0000000000000000000 ) ) ;
#38 = APPROVAL ( #205, 'UNSPECIFIED' ) ;
#39 = DIRECTION ( 'NONE',  ( -3.491481338843133355E-15, -4.959994709314789403E-16, -1.000000000000000000 ) ) ;
#40 = PERSON_AND_ORGANIZATION_ROLE ( 'creator' ) ;
#41 = DIRECTION ( 'NONE',  ( -3.491481338843133355E-15, 9.031770143711729009E-17, -1.000000000000000000 ) ) ;
#42 = LOCAL_TIME ( 11, 3, 20.00000000000000000, #100 ) ;
#43 = AXIS2_PLACEMENT_3D ( 'NONE', #179, #12, #91 ) ;
#44 = CALENDAR_DATE ( 2021, 26, 11 ) ;
#45 = AXIS2_PLACEMENT_3D ( 'NONE', #134, #217, #22 ) ;
#46 = APPROVAL_STATUS ( 'not_yet_approved' ) ;
#47 = EDGE_LOOP ( 'NONE', ( #213 ) ) ;
#48 = FACE_OUTER_BOUND ( 'NONE', #127, .T. ) ;
#49 = AXIS2_PLACEMENT_3D ( 'NONE', #109, #130, #170 ) ;
#50 = ORIENTED_EDGE ( 'NONE', *, *, #204, .T. ) ;
#51 = FACE_BOUND ( 'NONE', #177, .T. ) ;
#52 = DIRECTION ( 'NONE',  ( 0.0000000000000000000, 1.000000000000000000, 0.0000000000000000000 ) ) ;
#53 = APPLICATION_CONTEXT ( 'configuration controlled 3d designs of mechanical parts and assemblies' ) ;
#54 = PRODUCT_DEFINITION_SHAPE ( 'NONE', 'NONE',  #146 ) ;
#55 = CC_DESIGN_APPROVAL ( #38, ( #26 ) ) ;
#56 = DIRECTION ( 'NONE',  ( 0.0000000000000000000, 1.000000000000000000, 0.0000000000000000000 ) ) ;
#57 = DIRECTION ( 'NONE',  ( 3.491481338843133355E-15, 4.959994709314789403E-16, 1.000000000000000000 ) ) ;
#58 = DIRECTION ( 'NONE',  ( 3.153425691349006731E-31, 1.000000000000000000, 9.031770143711729009E-17 ) ) ;
#59 = AXIS2_PLACEMENT_3D ( 'NONE', #194, #36, #35 ) ;
#60 = PLANE ( 'NONE',  #24 ) ;
#61 = CC_DESIGN_PERSON_AND_ORGANIZATION_ASSIGNMENT ( #160, #40, ( #146 ) ) ;
#62 = VERTEX_POINT ( 'NONE', #5 ) ;
#63 = CIRCLE ( 'NONE', #152, 2.213059892324148237 ) ;
#64 = CC_DESIGN_PERSON_AND_ORGANIZATION_ASSIGNMENT ( #16, #14, ( #132 ) ) ;
#65 = APPROVAL_DATE_TIME ( #2, #13 ) ;
#66 = CARTESIAN_POINT ( 'NONE',  ( 0.0000000000000000000, 0.0000000000000000000, 0.0000000000000000000 ) ) ;
#67 =( NAMED_UNIT ( * ) SI_UNIT ( $, .STERADIAN. ) SOLID_ANGLE_UNIT ( ) );
#68 = AXIS2_PLACEMENT_3D ( 'NONE', #189, #41, #58 ) ;
#69 = EDGE_LOOP ( 'NONE', ( #50 ) ) ;
#70 = FACE_OUTER_BOUND ( 'NONE', #107, .T. ) ;
#71 = ADVANCED_FACE ( 'NONE', ( #48, #70 ), #234, .T. ) ;
#72 = AXIS2_PLACEMENT_3D ( 'NONE', #197, #195, #92 ) ;
#73 = ORIENTED_EDGE ( 'NONE', *, *, #206, .F. ) ;
#74 = ORIENTED_EDGE ( 'NONE', *, *, #94, .T. ) ;
#75 = COORDINATED_UNIVERSAL_TIME_OFFSET ( 1, 0, .AHEAD. ) ;
#76 = ORIENTED_EDGE ( 'NONE', *, *, #120, .F. ) ;
#77 = FACE_OUTER_BOUND ( 'NONE', #47, .T. ) ;
#78 = DATE_AND_TIME ( #241, #111 ) ;
#79 = CARTESIAN_POINT ( 'NONE',  ( 4.616725675534143132E-14, 6.558515627809261403E-15, 13.22282787014364480 ) ) ;
#80 = ADVANCED_FACE ( 'NONE', ( #106, #51 ), #162, .T. ) ;
#81 = CC_DESIGN_SECURITY_CLASSIFICATION ( #132, ( #26 ) ) ;
#82 = CIRCLE ( 'NONE', #209, 2.443999999999999506 ) ;
#83 = DIRECTION ( 'NONE',  ( -3.491481338843133355E-15, 9.031770143711729009E-17, -1.000000000000000000 ) ) ;
#84 = PERSON_AND_ORGANIZATION ( #214, #199 ) ;
#85 = CC_DESIGN_DATE_AND_TIME_ASSIGNMENT ( #236, #222, ( #146 ) ) ;
#86 = SHAPE_DEFINITION_REPRESENTATION ( #54, #228 ) ;
#87 = PERSON_AND_ORGANIZATION ( #214, #199 ) ;
#88 = ORIENTED_EDGE ( 'NONE', *, *, #237, .F. ) ;
#89 = FACE_OUTER_BOUND ( 'NONE', #144, .T. ) ;
#90 = CC_DESIGN_APPROVAL ( #13, ( #132 ) ) ;
#91 = DIRECTION ( 'NONE',  ( -1.731772896833325768E-30, 1.000000000000000000, -4.959994709314789403E-16 ) ) ;
#92 = DIRECTION ( 'NONE',  ( -1.731772896833325768E-30, 1.000000000000000000, -4.959994709314789403E-16 ) ) ;
#93 = DIRECTION ( 'NONE',  ( 3.153425691349006731E-31, 1.000000000000000000, 9.031770143711729009E-17 ) ) ;
#94 = EDGE_CURVE ( 'NONE', #165, #165, #142, .T. ) ;
#95 = VERTEX_POINT ( 'NONE', #168 ) ;
#96 = CARTESIAN_POINT ( 'NONE',  ( 3.832517140595838256E-30, 5.444469809771953893E-31, 1.097676535732453163E-15 ) ) ;
#97 = DIRECTION ( 'NONE',  ( -3.491481338843133355E-15, -4.959994709314789403E-16, -1.000000000000000000 ) ) ;
#98 = CIRCLE ( 'NONE', #118, 1.999999999999991784 ) ;
#99 = CALENDAR_DATE ( 2021, 26, 11 ) ;
#100 = COORDINATED_UNIVERSAL_TIME_OFFSET ( 1, 0, .AHEAD. ) ;
#101 =( LENGTH_UNIT ( ) NAMED_UNIT ( * ) SI_UNIT ( .MILLI., .METRE. ) );
#102 = EDGE_LOOP ( 'NONE', ( #128 ) ) ;
#103 = PLANE ( 'NONE',  #43 ) ;
#104 = ADVANCED_FACE ( 'NONE', ( #181 ), #103, .T. ) ;
#105 = DATE_AND_TIME ( #31, #21 ) ;
#106 = FACE_OUTER_BOUND ( 'NONE', #180, .T. ) ;
#107 = EDGE_LOOP ( 'NONE', ( #34 ) ) ;
#108 = ORIENTED_EDGE ( 'NONE', *, *, #120, .T. ) ;
#109 = CARTESIAN_POINT ( 'NONE',  ( 2.779219145719134403E-13, -7.189289034394536528E-15, 79.60000000000000853 ) ) ;
#110 = COORDINATED_UNIVERSAL_TIME_OFFSET ( 1, 0, .AHEAD. ) ;
#111 = LOCAL_TIME ( 11, 3, 20.00000000000000000, #220 ) ;
#112 = UNCERTAINTY_MEASURE_WITH_UNIT (LENGTH_MEASURE( 1.000000000000000082E-05 ), #101, 'distance_accuracy_value', 'NONE');
#113 = APPROVAL_DATE_TIME ( #78, #38 ) ;
#114 = CARTESIAN_POINT ( 'NONE',  ( 4.885231259955590439E-14, 1.999999999999990452, 13.99185842870425134 ) ) ;
#115 = FACE_OUTER_BOUND ( 'NONE', #102, .T. ) ;
#116 = SECURITY_CLASSIFICATION_LEVEL ( 'unclassified' ) ;
#117 = CARTESIAN_POINT ( 'NONE',  ( 2.779219145719134403E-13, -7.189289034394536528E-15, 79.60000000000000853 ) ) ;
#118 = AXIS2_PLACEMENT_3D ( 'NONE', #164, #215, #52 ) ;
#119 = LOCAL_TIME ( 11, 3, 20.00000000000000000, #110 ) ;
#120 = EDGE_CURVE ( 'NONE', #202, #202, #98, .T. ) ;
#121 = CARTESIAN_POINT ( 'NONE',  ( 6.842277657836020854E-46, 2.213059892324148237, 0.0000000000000000000 ) ) ;
#122 = EDGE_LOOP ( 'NONE', ( #88 ) ) ;
#123 = APPROVAL ( #46, 'UNSPECIFIED' ) ;
#124 = DIRECTION ( 'NONE',  ( 3.491481338843133355E-15, 4.959994709314789403E-16, 1.000000000000000000 ) ) ;
#125 = CONICAL_SURFACE ( 'NONE', #173, 1.999999999999995337, 0.7853981633974516097 ) ;
#126 = PLANE ( 'NONE',  #167 ) ;
#127 = EDGE_LOOP ( 'NONE', ( #158 ) ) ;
#128 = ORIENTED_EDGE ( 'NONE', *, *, #226, .T. ) ;
#129 = DIRECTION ( 'NONE',  ( -2.521675868264801513E-30, 1.000000000000000000, -7.097886562916582533E-16 ) ) ;
#130 = DIRECTION ( 'NONE',  ( -3.491481338843133355E-15, 9.031770143711729009E-17, -1.000000000000000000 ) ) ;
#131 = CARTESIAN_POINT ( 'NONE',  ( 4.616725675534143132E-14, -1.194255419730027383E-15, 13.22282787014364658 ) ) ;
#132 = SECURITY_CLASSIFICATION ( '', '', #116 ) ;
#133 = APPROVAL_ROLE ( '' ) ;
#134 = CARTESIAN_POINT ( 'NONE',  ( 2.793185071074506684E-13, -7.225416114969383207E-15, 80.00000000000000000 ) ) ;
#135 =( GEOMETRIC_REPRESENTATION_CONTEXT ( 3 ) GLOBAL_UNCERTAINTY_ASSIGNED_CONTEXT ( ( #112 ) ) GLOBAL_UNIT_ASSIGNED_CONTEXT ( ( #101, #6, #67 ) ) REPRESENTATION_CONTEXT ( 'NONE', 'WORKASPACE' ) );
#136 = APPLICATION_CONTEXT ( 'configuration controlled 3d designs of mechanical parts and assemblies' ) ;
#137 = PERSON_AND_ORGANIZATION ( #214, #199 ) ;
#138 = FACE_OUTER_BOUND ( 'NONE', #235, .T. ) ;
#139 = VERTEX_POINT ( 'NONE', #153 ) ;
#140 = DIRECTION ( 'NONE',  ( 0.0000000000000000000, 0.0000000000000000000, 1.000000000000000000 ) ) ;
#141 = PERSON_AND_ORGANIZATION ( #214, #199 ) ;
#142 = CIRCLE ( 'NONE', #59, 2.443999999999997730 ) ;
#143 = CARTESIAN_POINT ( 'NONE',  ( 2.793185071074506684E-13, -7.225416114969383207E-15, 80.00000000000000000 ) ) ;
#144 = EDGE_LOOP ( 'NONE', ( #161 ) ) ;
#145 = EDGE_LOOP ( 'NONE', ( #76 ) ) ;
#146 = PRODUCT_DEFINITION ( 'UNKNOWN', '', #26, #20 ) ;
#147 = ORIENTED_EDGE ( 'NONE', *, *, #204, .F. ) ;
#148 = DIRECTION ( 'NONE',  ( -3.491481338843133355E-15, 9.031770143711729009E-17, -1.000000000000000000 ) ) ;
#149 = PERSON_AND_ORGANIZATION_ROLE ( 'creator' ) ;
#150 = FACE_OUTER_BOUND ( 'NONE', #145, .T. ) ;
#151 = FACE_BOUND ( 'NONE', #231, .T. ) ;
#152 = AXIS2_PLACEMENT_3D ( 'NONE', #96, #39, #23 ) ;
#153 = CARTESIAN_POINT ( 'NONE',  ( 4.616725675534143132E-14, 2.443999999999998174, 13.22282787014364658 ) ) ;
#154 = APPROVAL_PERSON_ORGANIZATION ( #84, #13, #174 ) ;
#155 = AXIS2_PLACEMENT_3D ( 'NONE', #1, #97, #129 ) ;
#156 = APPROVAL_STATUS ( 'not_yet_approved' ) ;
#157 = APPROVAL_ROLE ( '' ) ;
#158 = ORIENTED_EDGE ( 'NONE', *, *, #206, .T. ) ;
#159 = ADVANCED_FACE ( 'NONE', ( #242, #203 ), #125, .T. ) ;
#160 = PERSON_AND_ORGANIZATION ( #214, #199 ) ;
#161 = ORIENTED_EDGE ( 'NONE', *, *, #176, .F. ) ;
#162 = CONICAL_SURFACE ( 'NONE', #32, 2.213059892324148237, 0.5235987755982979275 ) ;
#163 = CC_DESIGN_PERSON_AND_ORGANIZATION_ASSIGNMENT ( #137, #149, ( #26 ) ) ;
#164 = CARTESIAN_POINT ( 'NONE',  ( 4.885231259955590439E-14, -1.263712492114123682E-15, 13.99185842870425134 ) ) ;
#165 = VERTEX_POINT ( 'NONE', #221 ) ;
#166 = ADVANCED_FACE ( 'NONE', ( #138 ), #60, .T. ) ;
#167 = AXIS2_PLACEMENT_3D ( 'NONE', #143, #8, #210 ) ;
#168 = CARTESIAN_POINT ( 'NONE',  ( 2.793185071074506684E-13, 1.599999999999987876, 80.00000000000000000 ) ) ;
#169 = PERSON_AND_ORGANIZATION ( #214, #199 ) ;
#170 = DIRECTION ( 'NONE',  ( 0.0000000000000000000, 1.000000000000000000, 0.0000000000000000000 ) ) ;
#171 = APPROVAL_PERSON_ORGANIZATION ( #169, #38, #133 ) ;
#172 = CARTESIAN_POINT ( 'NONE',  ( 0.0000000000000000000, 0.0000000000000000000, 0.0000000000000000000 ) ) ;
#173 = AXIS2_PLACEMENT_3D ( 'NONE', #117, #184, #243 ) ;
#174 = APPROVAL_ROLE ( '' ) ;
#175 = APPLICATION_PROTOCOL_DEFINITION ( 'international standard', 'config_control_design', 1994, #53 ) ;
#176 = EDGE_CURVE ( 'NONE', #95, #95, #212, .T. ) ;
#177 = EDGE_LOOP ( 'NONE', ( #147 ) ) ;
#178 = AXIS2_PLACEMENT_3D ( 'NONE', #131, #148, #56 ) ;
#179 = CARTESIAN_POINT ( 'NONE',  ( -1.916258570297919128E-30, 2.213059892324148237, -5.488382678662265814E-16 ) ) ;
#180 = EDGE_LOOP ( 'NONE', ( #74 ) ) ;
#181 = FACE_OUTER_BOUND ( 'NONE', #69, .T. ) ;
#182 = EDGE_LOOP ( 'NONE', ( #9 ) ) ;
#183 = CALENDAR_DATE ( 2021, 26, 11 ) ;
#184 = DIRECTION ( 'NONE',  ( -3.491481338843133355E-15, 9.031770143711729009E-17, -1.000000000000000000 ) ) ;
#185 = ADVANCED_FACE ( 'NONE', ( #115 ), #17, .T. ) ;
#186 = DIRECTION ( 'NONE',  ( 1.731772896833325768E-30, -1.000000000000000000, 4.959994709314789403E-16 ) ) ;
#187 = PERSON_AND_ORGANIZATION ( #214, #199 ) ;
#188 = DIRECTION ( 'NONE',  ( -3.491481338843133355E-15, 9.031770143711729009E-17, -1.000000000000000000 ) ) ;
#189 = CARTESIAN_POINT ( 'NONE',  ( 4.616725675534143132E-14, 2.443999999999998174, 13.22282787014364480 ) ) ;
#190 = ADVANCED_FACE ( 'NONE', ( #151, #77 ), #7, .T. ) ;
#191 = CARTESIAN_POINT ( 'NONE',  ( 2.779219145719134403E-13, 1.999999999999988010, 79.60000000000000853 ) ) ;
#192 = EDGE_LOOP ( 'NONE', ( #11 ) ) ;
#193 = COORDINATED_UNIVERSAL_TIME_OFFSET ( 1, 0, .AHEAD. ) ;
#194 = CARTESIAN_POINT ( 'NONE',  ( 1.396592535537257089E-15, 1.983997883725921234E-16, 0.4000000000000010769 ) ) ;
#195 = DIRECTION ( 'NONE',  ( -3.491481338843133355E-15, -4.959994709314789403E-16, -1.000000000000000000 ) ) ;
#196 = DIRECTION ( 'NONE',  ( 1.731772896833325768E-30, -1.000000000000000000, 4.959994709314788417E-16 ) ) ;
#197 = CARTESIAN_POINT ( 'NONE',  ( 0.0000000000000000000, 0.0000000000000000000, 0.0000000000000000000 ) ) ;
#198 = CIRCLE ( 'NONE', #49, 1.999999999999995337 ) ;
#199 = ORGANIZATION ( 'UNSPECIFIED', 'UNSPECIFIED', '' ) ;
#200 = CARTESIAN_POINT ( 'NONE',  ( 4.616725675534143132E-14, -1.194255419730027383E-15, 13.22282787014364658 ) ) ;
#201 = ADVANCED_FACE ( 'NONE', ( #224, #150 ), #15, .T. ) ;
#202 = VERTEX_POINT ( 'NONE', #114 ) ;
#203 = FACE_OUTER_BOUND ( 'NONE', #122, .T. ) ;
#204 = EDGE_CURVE ( 'NONE', #240, #240, #63, .T. ) ;
#205 = APPROVAL_STATUS ( 'not_yet_approved' ) ;
#206 = EDGE_CURVE ( 'NONE', #62, #62, #19, .T. ) ;
#207 = DATE_TIME_ROLE ( 'classification_date' ) ;
#208 = DIRECTION ( 'NONE',  ( 1.000000000000000000, 0.0000000000000000000, 0.0000000000000000000 ) ) ;
#209 = AXIS2_PLACEMENT_3D ( 'NONE', #200, #83, #37 ) ;
#210 = DIRECTION ( 'NONE',  ( -3.153425691349006731E-31, -1.000000000000000000, -9.031770143711729009E-17 ) ) ;
#211 = PRODUCT_RELATED_PRODUCT_CATEGORY ( 'detail', '', ( #216 ) ) ;
#212 = CIRCLE ( 'NONE', #45, 1.599999999999994982 ) ;
#213 = ORIENTED_EDGE ( 'NONE', *, *, #226, .F. ) ;
#214 = PERSON ( 'UNSPECIFIED', 'UNSPECIFIED', 'UNSPECIFIED', ('UNSPECIFIED'), ('UNSPECIFIED'), ('UNSPECIFIED') ) ;
#215 = DIRECTION ( 'NONE',  ( -3.491481338843133355E-15, 9.031770143711729009E-17, -1.000000000000000000 ) ) ;
#216 = PRODUCT ( '321392', '321392', '', ( #3 ) ) ;
#217 = DIRECTION ( 'NONE',  ( -3.491481338843133355E-15, 9.031770143711729009E-17, -1.000000000000000000 ) ) ;
#218 = CC_DESIGN_PERSON_AND_ORGANIZATION_ASSIGNMENT ( #141, #27, ( #216 ) ) ;
#219 = APPROVAL_PERSON_ORGANIZATION ( #87, #123, #157 ) ;
#220 = COORDINATED_UNIVERSAL_TIME_OFFSET ( 1, 0, .AHEAD. ) ;
#221 = CARTESIAN_POINT ( 'NONE',  ( 1.396592535537252948E-15, 2.443999999999997730, 0.3999999999999999112 ) ) ;
#222 = DATE_TIME_ROLE ( 'creation_date' ) ;
#223 = AXIS2_PLACEMENT_3D ( 'NONE', #66, #140, #208 ) ;
#224 = FACE_OUTER_BOUND ( 'NONE', #192, .T. ) ;
#225 = VERTEX_POINT ( 'NONE', #191 ) ;
#226 = EDGE_CURVE ( 'NONE', #139, #139, #82, .T. ) ;
#227 = MANIFOLD_SOLID_BREP ( 'Corps-Déplacer/Copier1[1]', #30 ) ;
#228 = ADVANCED_BREP_SHAPE_REPRESENTATION ( '321392', ( #227, #232, #223 ), #135 ) ;
#229 = DATE_AND_TIME ( #44, #28 ) ;
#230 = CC_DESIGN_DATE_AND_TIME_ASSIGNMENT ( #229, #207, ( #132 ) ) ;
#231 = EDGE_LOOP ( 'NONE', ( #108 ) ) ;
#232 = MANIFOLD_SOLID_BREP ( 'Corps-Déplacer/Copier1[2]', #4 ) ;
#233 = CC_DESIGN_PERSON_AND_ORGANIZATION_ASSIGNMENT ( #187, #238, ( #26 ) ) ;
#234 = CYLINDRICAL_SURFACE ( 'NONE', #72, 2.443999999999994621 ) ;
#235 = EDGE_LOOP ( 'NONE', ( #73 ) ) ;
#236 = DATE_AND_TIME ( #183, #119 ) ;
#237 = EDGE_CURVE ( 'NONE', #225, #225, #198, .T. ) ;
#238 = PERSON_AND_ORGANIZATION_ROLE ( 'design_supplier' ) ;
#239 = AXIS2_PLACEMENT_3D ( 'NONE', #172, #188, #93 ) ;
#240 = VERTEX_POINT ( 'NONE', #121 ) ;
#241 = CALENDAR_DATE ( 2021, 26, 11 ) ;
#242 = FACE_BOUND ( 'NONE', #182, .T. ) ;
#243 = DIRECTION ( 'NONE',  ( 0.0000000000000000000, 1.000000000000000000, 0.0000000000000000000 ) ) ;
ENDSEC;
END-ISO-10303-21;
