ISO-10303-21;
HEADER;
FILE_DESCRIPTION (( 'STEP AP203' ),
    '1' );
FILE_NAME ('321391.step',
    '2021-11-26T10:03:19',
    ( '' ),
    ( '' ),
    'SwSTEP 2.0',
    'SolidWorks 2019',
    '' );
FILE_SCHEMA (( 'CONFIG_CONTROL_DESIGN' ));
ENDSEC;

DATA;
#1 = EDGE_CURVE ( 'NONE', #145, #145, #149, .T. ) ;
#2 = APPLICATION_CONTEXT ( 'configuration controlled 3d designs of mechanical parts and assemblies' ) ;
#3 = ORIENTED_EDGE ( 'NONE', *, *, #120, .T. ) ;
#4 = APPROVAL_ROLE ( '' ) ;
#5 = ORIENTED_EDGE ( 'NONE', *, *, #110, .T. ) ;
#6 = DIRECTION ( 'NONE',  ( 1.730079697223343026E-30, -1.000000000000000000, 4.955145192889924817E-16 ) ) ;
#7 = APPROVAL_PERSON_ORGANIZATION ( #177, #8, #4 ) ;
#8 = APPROVAL ( #36, 'UNSPECIFIED' ) ;
#9 = COORDINATED_UNIVERSAL_TIME_OFFSET ( 1, 0, .AHEAD. ) ;
#10 = DIRECTION ( 'NONE',  ( -3.153425691349006731E-31, -1.000000000000000000, -9.031770143711729009E-17 ) ) ;
#11 = PLANE ( 'NONE',  #94 ) ;
#12 = DIRECTION ( 'NONE',  ( -3.491481338843133355E-15, 9.031770143711729009E-17, -1.000000000000000000 ) ) ;
#13 = LOCAL_TIME ( 11, 3, 19.00000000000000000, #240 ) ;
#14 = DIRECTION ( 'NONE',  ( 3.491481338843133355E-15, -9.031770143711729009E-17, 1.000000000000000000 ) ) ;
#15 = APPLICATION_PROTOCOL_DEFINITION ( 'international standard', 'config_control_design', 1994, #116 ) ;
#16 = PERSON_AND_ORGANIZATION ( #52, #225 ) ;
#17 = CC_DESIGN_PERSON_AND_ORGANIZATION_ASSIGNMENT ( #16, #119, ( #101 ) ) ;
#18 =( NAMED_UNIT ( * ) SI_UNIT ( $, .STERADIAN. ) SOLID_ANGLE_UNIT ( ) );
#19 = APPROVAL_DATE_TIME ( #222, #67 ) ;
#20 = VERTEX_POINT ( 'NONE', #117 ) ;
#21 = ORIENTED_EDGE ( 'NONE', *, *, #110, .F. ) ;
#22 = ORIENTED_EDGE ( 'NONE', *, *, #80, .T. ) ;
#23 = EDGE_LOOP ( 'NONE', ( #22 ) ) ;
#24 = DIRECTION ( 'NONE',  ( -3.491481338843133355E-15, -4.955145192889924817E-16, -1.000000000000000000 ) ) ;
#25 = CARTESIAN_POINT ( 'NONE',  ( 0.0000000000000000000, 0.0000000000000000000, 0.0000000000000000000 ) ) ;
#26 = FACE_OUTER_BOUND ( 'NONE', #211, .T. ) ;
#27 = CIRCLE ( 'NONE', #189, 2.438999999999999613 ) ;
#28 = DIRECTION ( 'NONE',  ( -3.491481338843133355E-15, -4.955145192889924817E-16, -1.000000000000000000 ) ) ;
#29 = CARTESIAN_POINT ( 'NONE',  ( 4.619749387070421268E-14, -1.195037593968586877E-15, 13.23148812418149056 ) ) ;
#30 = PLANE ( 'NONE',  #81 ) ;
#31 = AXIS2_PLACEMENT_3D ( 'NONE', #111, #82, #215 ) ;
#32 = DESIGN_CONTEXT ( 'detailed design', #116, 'design' ) ;
#33 = APPLICATION_PROTOCOL_DEFINITION ( 'international standard', 'config_control_design', 1994, #2 ) ;
#34 = PERSON_AND_ORGANIZATION ( #52, #225 ) ;
#35 = DATE_AND_TIME ( #55, #122 ) ;
#36 = APPROVAL_STATUS ( 'not_yet_approved' ) ;
#37 = CC_DESIGN_APPROVAL ( #67, ( #243 ) ) ;
#38 = EDGE_LOOP ( 'NONE', ( #21 ) ) ;
#39 = CARTESIAN_POINT ( 'NONE',  ( 4.619749387070421899E-14, 6.556394477331805004E-15, 13.23148812418149234 ) ) ;
#40 = EDGE_LOOP ( 'NONE', ( #3 ) ) ;
#41 = CIRCLE ( 'NONE', #128, 1.999999999999991784 ) ;
#42 = CYLINDRICAL_SURFACE ( 'NONE', #77, 1.999999999999993561 ) ;
#43 = DIRECTION ( 'NONE',  ( -3.491481338843133355E-15, 9.031770143711729009E-17, -1.000000000000000000 ) ) ;
#44 = SHAPE_DEFINITION_REPRESENTATION ( #135, #112 ) ;
#45 = CARTESIAN_POINT ( 'NONE',  ( 2.793185071074506684E-13, -7.225416114969383207E-15, 80.00000000000000000 ) ) ;
#46 = AXIS2_PLACEMENT_3D ( 'NONE', #45, #14, #10 ) ;
#47 = DIRECTION ( 'NONE',  ( -1.730079697223343026E-30, 1.000000000000000000, -4.955145192889924817E-16 ) ) ;
#48 = PRODUCT_RELATED_PRODUCT_CATEGORY ( 'detail', '', ( #207 ) ) ;
#49 = DIRECTION ( 'NONE',  ( -3.491481338843133355E-15, -4.955145192889924817E-16, -1.000000000000000000 ) ) ;
#50 = CARTESIAN_POINT ( 'NONE',  ( 4.885231259955590439E-14, -1.263712492114123682E-15, 13.99185842870425134 ) ) ;
#51 =( LENGTH_UNIT ( ) NAMED_UNIT ( * ) SI_UNIT ( .MILLI., .METRE. ) );
#52 = PERSON ( 'UNSPECIFIED', 'UNSPECIFIED', 'UNSPECIFIED', ('UNSPECIFIED'), ('UNSPECIFIED'), ('UNSPECIFIED') ) ;
#53 = COORDINATED_UNIVERSAL_TIME_OFFSET ( 1, 0, .AHEAD. ) ;
#54 = MANIFOLD_SOLID_BREP ( 'Corps-Déplacer/Copier1[1]', #232 ) ;
#55 = CALENDAR_DATE ( 2021, 26, 11 ) ;
#56 = DIRECTION ( 'NONE',  ( -3.491481338843133355E-15, 9.031770143711729009E-17, -1.000000000000000000 ) ) ;
#57 = AXIS2_PLACEMENT_3D ( 'NONE', #179, #79, #208 ) ;
#58 = APPROVAL ( #91, 'UNSPECIFIED' ) ;
#59 = ORIENTED_EDGE ( 'NONE', *, *, #123, .F. ) ;
#60 = MANIFOLD_SOLID_BREP ( 'Corps-Déplacer/Copier1[2]', #227 ) ;
#61 = FACE_OUTER_BOUND ( 'NONE', #40, .T. ) ;
#62 = CONICAL_SURFACE ( 'NONE', #143, 1.999999999999995337, 0.7853981633974516097 ) ;
#63 = ORIENTED_EDGE ( 'NONE', *, *, #123, .T. ) ;
#64 = DIRECTION ( 'NONE',  ( -1.730079697223343026E-30, 1.000000000000000000, -4.955145192889924817E-16 ) ) ;
#65 = DIRECTION ( 'NONE',  ( -3.491481338843133355E-15, 9.031770143711729009E-17, -1.000000000000000000 ) ) ;
#66 = CARTESIAN_POINT ( 'NONE',  ( 1.396592535537257089E-15, 1.982058077155975449E-16, 0.4000000000000010769 ) ) ;
#67 = APPROVAL ( #148, 'UNSPECIFIED' ) ;
#68 = FACE_BOUND ( 'NONE', #178, .T. ) ;
#69 = DIRECTION ( 'NONE',  ( 0.0000000000000000000, 1.000000000000000000, 0.0000000000000000000 ) ) ;
#70 = CALENDAR_DATE ( 2021, 26, 11 ) ;
#71 = CIRCLE ( 'NONE', #161, 2.438999999999992063 ) ;
#72 = CC_DESIGN_SECURITY_CLASSIFICATION ( #193, ( #243 ) ) ;
#73 = CARTESIAN_POINT ( 'NONE',  ( 0.0000000000000000000, 0.0000000000000000000, 0.0000000000000000000 ) ) ;
#74 = DATE_AND_TIME ( #70, #13 ) ;
#75 = PERSON_AND_ORGANIZATION ( #52, #225 ) ;
#76 = CONICAL_SURFACE ( 'NONE', #31, 2.208059892324149232, 0.5235987755982979275 ) ;
#77 = AXIS2_PLACEMENT_3D ( 'NONE', #104, #56, #137 ) ;
#78 = EDGE_LOOP ( 'NONE', ( #59 ) ) ;
#79 = DIRECTION ( 'NONE',  ( -3.491481338843133355E-15, -4.955145192889924817E-16, -1.000000000000000000 ) ) ;
#80 = EDGE_CURVE ( 'NONE', #185, #185, #71, .T. ) ;
#81 = AXIS2_PLACEMENT_3D ( 'NONE', #129, #28, #47 ) ;
#82 = DIRECTION ( 'NONE',  ( 3.491481338843133355E-15, 4.955145192889924817E-16, 1.000000000000000000 ) ) ;
#83 = VERTEX_POINT ( 'NONE', #90 ) ;
#84 = ADVANCED_FACE ( 'NONE', ( #61, #226 ), #42, .T. ) ;
#85 = CARTESIAN_POINT ( 'NONE',  ( 2.779219145719134403E-13, -7.189289034394536528E-15, 79.60000000000000853 ) ) ;
#86 = DATE_AND_TIME ( #89, #181 ) ;
#87 = CARTESIAN_POINT ( 'NONE',  ( 2.793185071074506684E-13, -7.225416114969383207E-15, 80.00000000000000000 ) ) ;
#88 =( GEOMETRIC_REPRESENTATION_CONTEXT ( 3 ) GLOBAL_UNCERTAINTY_ASSIGNED_CONTEXT ( ( #221 ) ) GLOBAL_UNIT_ASSIGNED_CONTEXT ( ( #51, #188, #18 ) ) REPRESENTATION_CONTEXT ( 'NONE', 'WORKASPACE' ) );
#89 = CALENDAR_DATE ( 2021, 26, 11 ) ;
#90 = CARTESIAN_POINT ( 'NONE',  ( 4.619749387070421268E-14, 2.438999999999998280, 13.23148812418149056 ) ) ;
#91 = APPROVAL_STATUS ( 'not_yet_approved' ) ;
#92 = ADVANCED_FACE ( 'NONE', ( #147 ), #11, .T. ) ;
#93 = PERSON_AND_ORGANIZATION_ROLE ( 'creator' ) ;
#94 = AXIS2_PLACEMENT_3D ( 'NONE', #109, #183, #6 ) ;
#95 = PERSON_AND_ORGANIZATION_ROLE ( 'design_owner' ) ;
#96 = ADVANCED_FACE ( 'NONE', ( #217, #198 ), #113, .T. ) ;
#97 = VERTEX_POINT ( 'NONE', #170 ) ;
#98 = PERSON_AND_ORGANIZATION ( #52, #225 ) ;
#99 = APPROVAL_PERSON_ORGANIZATION ( #206, #67, #187 ) ;
#100 = EDGE_LOOP ( 'NONE', ( #229 ) ) ;
#101 = PRODUCT_DEFINITION ( 'UNKNOWN', '', #243, #32 ) ;
#102 = ORIENTED_EDGE ( 'NONE', *, *, #127, .F. ) ;
#103 = LOCAL_TIME ( 11, 3, 19.00000000000000000, #53 ) ;
#104 = CARTESIAN_POINT ( 'NONE',  ( 0.0000000000000000000, 0.0000000000000000000, 0.0000000000000000000 ) ) ;
#105 = ADVANCED_FACE ( 'NONE', ( #234, #106 ), #132, .T. ) ;
#106 = FACE_OUTER_BOUND ( 'NONE', #38, .T. ) ;
#107 = AXIS2_PLACEMENT_3D ( 'NONE', #25, #49, #64 ) ;
#108 = CARTESIAN_POINT ( 'NONE',  ( 2.779219145719134403E-13, -7.189289034394536528E-15, 79.60000000000000853 ) ) ;
#109 = CARTESIAN_POINT ( 'NONE',  ( 4.619749387070422530E-14, 6.556394477331806582E-15, 13.23148812418149411 ) ) ;
#110 = EDGE_CURVE ( 'NONE', #83, #83, #27, .T. ) ;
#111 = CARTESIAN_POINT ( 'NONE',  ( 3.820119589963171458E-30, 5.421551881684309726E-31, 1.094125736106305308E-15 ) ) ;
#112 = ADVANCED_BREP_SHAPE_REPRESENTATION ( '321391', ( #54, #60, #205 ), #88 ) ;
#113 = CYLINDRICAL_SURFACE ( 'NONE', #107, 2.438999999999995616 ) ;
#114 = MECHANICAL_CONTEXT ( 'NONE', #2, 'mechanical' ) ;
#115 = CC_DESIGN_DATE_AND_TIME_ASSIGNMENT ( #74, #121, ( #101 ) ) ;
#116 = APPLICATION_CONTEXT ( 'configuration controlled 3d designs of mechanical parts and assemblies' ) ;
#117 = CARTESIAN_POINT ( 'NONE',  ( 1.396592535537252948E-15, 2.438999999999998725, 0.3999999999999999112 ) ) ;
#118 = CIRCLE ( 'NONE', #218, 1.599999999999994982 ) ;
#119 = PERSON_AND_ORGANIZATION_ROLE ( 'creator' ) ;
#120 = EDGE_CURVE ( 'NONE', #168, #168, #214, .T. ) ;
#121 = DATE_TIME_ROLE ( 'creation_date' ) ;
#122 = LOCAL_TIME ( 11, 3, 19.00000000000000000, #224 ) ;
#123 = EDGE_CURVE ( 'NONE', #97, #97, #41, .T. ) ;
#124 = ORIENTED_EDGE ( 'NONE', *, *, #166, .T. ) ;
#125 = APPROVAL_PERSON_ORGANIZATION ( #171, #58, #169 ) ;
#126 = DIRECTION ( 'NONE',  ( 0.0000000000000000000, 1.000000000000000000, 0.0000000000000000000 ) ) ;
#127 = EDGE_CURVE ( 'NONE', #20, #20, #152, .T. ) ;
#128 = AXIS2_PLACEMENT_3D ( 'NONE', #50, #235, #213 ) ;
#129 = CARTESIAN_POINT ( 'NONE',  ( -1.910059794981585729E-30, 2.208059892324149232, -5.470628680531526542E-16 ) ) ;
#130 = PLANE ( 'NONE',  #174 ) ;
#131 = DIRECTION ( 'NONE',  ( 0.0000000000000000000, 1.000000000000000000, 0.0000000000000000000 ) ) ;
#132 = CONICAL_SURFACE ( 'NONE', #239, 2.438999999999999613, 0.5235987755982931535 ) ;
#133 = DIRECTION ( 'NONE',  ( 1.000000000000000000, 0.0000000000000000000, 0.0000000000000000000 ) ) ;
#134 = APPROVAL_DATE_TIME ( #220, #58 ) ;
#135 = PRODUCT_DEFINITION_SHAPE ( 'NONE', 'NONE',  #101 ) ;
#136 = ADVANCED_FACE ( 'NONE', ( #141 ), #237, .T. ) ;
#137 = DIRECTION ( 'NONE',  ( 3.153425691349006731E-31, 1.000000000000000000, 9.031770143711729009E-17 ) ) ;
#138 = EDGE_LOOP ( 'NONE', ( #230 ) ) ;
#139 = ADVANCED_FACE ( 'NONE', ( #180, #184 ), #76, .T. ) ;
#140 = ORIENTED_EDGE ( 'NONE', *, *, #120, .F. ) ;
#141 = FACE_OUTER_BOUND ( 'NONE', #158, .T. ) ;
#142 = CARTESIAN_POINT ( 'NONE',  ( 4.619749387070421268E-14, -1.195037593968586877E-15, 13.23148812418149056 ) ) ;
#143 = AXIS2_PLACEMENT_3D ( 'NONE', #108, #236, #69 ) ;
#144 = DIRECTION ( 'NONE',  ( -1.737206181899106641E-30, 1.000000000000000000, -4.889800695916586726E-16 ) ) ;
#145 = VERTEX_POINT ( 'NONE', #216 ) ;
#146 = ADVANCED_FACE ( 'NONE', ( #162 ), #30, .T. ) ;
#147 = FACE_OUTER_BOUND ( 'NONE', #138, .T. ) ;
#148 = APPROVAL_STATUS ( 'not_yet_approved' ) ;
#149 = CIRCLE ( 'NONE', #57, 2.208059892324149232 ) ;
#150 = DIRECTION ( 'NONE',  ( 0.0000000000000000000, 0.0000000000000000000, 1.000000000000000000 ) ) ;
#151 = PERSON_AND_ORGANIZATION_ROLE ( 'classification_officer' ) ;
#152 = CIRCLE ( 'NONE', #157, 2.438999999999998725 ) ;
#153 = CALENDAR_DATE ( 2021, 26, 11 ) ;
#154 = DIRECTION ( 'NONE',  ( -2.526845355489616412E-30, 1.000000000000000000, -7.112437375878690606E-16 ) ) ;
#155 = ADVANCED_FACE ( 'NONE', ( #212 ), #130, .T. ) ;
#156 = EDGE_LOOP ( 'NONE', ( #102 ) ) ;
#157 = AXIS2_PLACEMENT_3D ( 'NONE', #66, #200, #144 ) ;
#158 = EDGE_LOOP ( 'NONE', ( #176 ) ) ;
#159 = EDGE_LOOP ( 'NONE', ( #175 ) ) ;
#160 = LOCAL_TIME ( 11, 3, 19.00000000000000000, #204 ) ;
#161 = AXIS2_PLACEMENT_3D ( 'NONE', #39, #24, #154 ) ;
#162 = FACE_OUTER_BOUND ( 'NONE', #159, .T. ) ;
#163 = APPROVAL_DATE_TIME ( #86, #8 ) ;
#164 = CARTESIAN_POINT ( 'NONE',  ( 2.779219145719134403E-13, 1.999999999999988010, 79.60000000000000853 ) ) ;
#165 = DIRECTION ( 'NONE',  ( 0.0000000000000000000, 1.000000000000000000, 0.0000000000000000000 ) ) ;
#166 = EDGE_CURVE ( 'NONE', #238, #238, #118, .T. ) ;
#167 = DIRECTION ( 'NONE',  ( -3.491481338843133355E-15, 9.031770143711729009E-17, -1.000000000000000000 ) ) ;
#168 = VERTEX_POINT ( 'NONE', #164 ) ;
#169 = APPROVAL_ROLE ( '' ) ;
#170 = CARTESIAN_POINT ( 'NONE',  ( 4.885231259955590439E-14, 1.999999999999990452, 13.99185842870425134 ) ) ;
#171 = PERSON_AND_ORGANIZATION ( #52, #225 ) ;
#172 = PERSON_AND_ORGANIZATION ( #52, #225 ) ;
#173 = CC_DESIGN_PERSON_AND_ORGANIZATION_ASSIGNMENT ( #98, #241, ( #243 ) ) ;
#174 = AXIS2_PLACEMENT_3D ( 'NONE', #199, #201, #233 ) ;
#175 = ORIENTED_EDGE ( 'NONE', *, *, #1, .T. ) ;
#176 = ORIENTED_EDGE ( 'NONE', *, *, #166, .F. ) ;
#177 = PERSON_AND_ORGANIZATION ( #52, #225 ) ;
#178 = EDGE_LOOP ( 'NONE', ( #124 ) ) ;
#179 = CARTESIAN_POINT ( 'NONE',  ( 3.820119589963171458E-30, 5.421551881684309726E-31, 1.094125736106305308E-15 ) ) ;
#180 = FACE_OUTER_BOUND ( 'NONE', #194, .T. ) ;
#181 = LOCAL_TIME ( 11, 3, 19.00000000000000000, #9 ) ;
#182 = CARTESIAN_POINT ( 'NONE',  ( 4.619749387070421268E-14, 2.438999999999998280, 13.23148812418149056 ) ) ;
#183 = DIRECTION ( 'NONE',  ( 3.491481338843133355E-15, 4.955145192889924817E-16, 1.000000000000000000 ) ) ;
#184 = FACE_BOUND ( 'NONE', #100, .T. ) ;
#185 = VERTEX_POINT ( 'NONE', #182 ) ;
#186 = CC_DESIGN_PERSON_AND_ORGANIZATION_ASSIGNMENT ( #172, #93, ( #243 ) ) ;
#187 = APPROVAL_ROLE ( '' ) ;
#188 =( NAMED_UNIT ( * ) PLANE_ANGLE_UNIT ( ) SI_UNIT ( $, .RADIAN. ) );
#189 = AXIS2_PLACEMENT_3D ( 'NONE', #29, #12, #131 ) ;
#190 = CALENDAR_DATE ( 2021, 26, 11 ) ;
#191 = ADVANCED_FACE ( 'NONE', ( #68, #26 ), #62, .T. ) ;
#192 = SECURITY_CLASSIFICATION_LEVEL ( 'unclassified' ) ;
#193 = SECURITY_CLASSIFICATION ( '', '', #192 ) ;
#194 = EDGE_LOOP ( 'NONE', ( #228 ) ) ;
#195 = EDGE_LOOP ( 'NONE', ( #5 ) ) ;
#196 = AXIS2_PLACEMENT_3D ( 'NONE', #85, #43, #165 ) ;
#197 = EDGE_LOOP ( 'NONE', ( #63 ) ) ;
#198 = FACE_OUTER_BOUND ( 'NONE', #156, .T. ) ;
#199 = CARTESIAN_POINT ( 'NONE',  ( 4.619749387070422530E-14, 2.438999999999998280, 13.23148812418149411 ) ) ;
#200 = DIRECTION ( 'NONE',  ( -3.491481338843133355E-15, -4.955145192889924817E-16, -1.000000000000000000 ) ) ;
#201 = DIRECTION ( 'NONE',  ( -3.491481338843133355E-15, 9.031770143711729009E-17, -1.000000000000000000 ) ) ;
#202 = DIRECTION ( 'NONE',  ( 0.0000000000000000000, 1.000000000000000000, 0.0000000000000000000 ) ) ;
#203 = CARTESIAN_POINT ( 'NONE',  ( 2.793185071074506684E-13, 1.599999999999987876, 80.00000000000000000 ) ) ;
#204 = COORDINATED_UNIVERSAL_TIME_OFFSET ( 1, 0, .AHEAD. ) ;
#205 = AXIS2_PLACEMENT_3D ( 'NONE', #73, #150, #133 ) ;
#206 = PERSON_AND_ORGANIZATION ( #52, #225 ) ;
#207 = PRODUCT ( '321391', '321391', '', ( #114 ) ) ;
#208 = DIRECTION ( 'NONE',  ( -1.730079697223342676E-30, 1.000000000000000000, -4.955145192889924817E-16 ) ) ;
#209 = CC_DESIGN_APPROVAL ( #58, ( #101 ) ) ;
#210 = CC_DESIGN_PERSON_AND_ORGANIZATION_ASSIGNMENT ( #75, #151, ( #193 ) ) ;
#211 = EDGE_LOOP ( 'NONE', ( #140 ) ) ;
#212 = FACE_OUTER_BOUND ( 'NONE', #195, .T. ) ;
#213 = DIRECTION ( 'NONE',  ( 0.0000000000000000000, 1.000000000000000000, 0.0000000000000000000 ) ) ;
#214 = CIRCLE ( 'NONE', #196, 1.999999999999995337 ) ;
#215 = DIRECTION ( 'NONE',  ( 1.730079697223342326E-30, -1.000000000000000000, 4.955145192889924817E-16 ) ) ;
#216 = CARTESIAN_POINT ( 'NONE',  ( 6.842277657836020854E-46, 2.208059892324149232, 0.0000000000000000000 ) ) ;
#217 = FACE_OUTER_BOUND ( 'NONE', #23, .T. ) ;
#218 = AXIS2_PLACEMENT_3D ( 'NONE', #87, #167, #202 ) ;
#219 = CC_DESIGN_APPROVAL ( #8, ( #193 ) ) ;
#220 = DATE_AND_TIME ( #153, #103 ) ;
#221 = UNCERTAINTY_MEASURE_WITH_UNIT (LENGTH_MEASURE( 1.000000000000000082E-05 ), #51, 'distance_accuracy_value', 'NONE');
#222 = DATE_AND_TIME ( #190, #160 ) ;
#223 = CC_DESIGN_PERSON_AND_ORGANIZATION_ASSIGNMENT ( #34, #95, ( #207 ) ) ;
#224 = COORDINATED_UNIVERSAL_TIME_OFFSET ( 1, 0, .AHEAD. ) ;
#225 = ORGANIZATION ( 'UNSPECIFIED', 'UNSPECIFIED', '' ) ;
#226 = FACE_OUTER_BOUND ( 'NONE', #78, .T. ) ;
#227 = CLOSED_SHELL ( 'NONE', ( #92, #96, #139, #146 ) ) ;
#228 = ORIENTED_EDGE ( 'NONE', *, *, #127, .T. ) ;
#229 = ORIENTED_EDGE ( 'NONE', *, *, #1, .F. ) ;
#230 = ORIENTED_EDGE ( 'NONE', *, *, #80, .F. ) ;
#231 = CC_DESIGN_DATE_AND_TIME_ASSIGNMENT ( #35, #242, ( #193 ) ) ;
#232 = CLOSED_SHELL ( 'NONE', ( #136, #191, #84, #105, #155 ) ) ;
#233 = DIRECTION ( 'NONE',  ( 3.153425691349006731E-31, 1.000000000000000000, 9.031770143711729009E-17 ) ) ;
#234 = FACE_BOUND ( 'NONE', #197, .T. ) ;
#235 = DIRECTION ( 'NONE',  ( -3.491481338843133355E-15, 9.031770143711729009E-17, -1.000000000000000000 ) ) ;
#236 = DIRECTION ( 'NONE',  ( -3.491481338843133355E-15, 9.031770143711729009E-17, -1.000000000000000000 ) ) ;
#237 = PLANE ( 'NONE',  #46 ) ;
#238 = VERTEX_POINT ( 'NONE', #203 ) ;
#239 = AXIS2_PLACEMENT_3D ( 'NONE', #142, #65, #126 ) ;
#240 = COORDINATED_UNIVERSAL_TIME_OFFSET ( 1, 0, .AHEAD. ) ;
#241 = PERSON_AND_ORGANIZATION_ROLE ( 'design_supplier' ) ;
#242 = DATE_TIME_ROLE ( 'classification_date' ) ;
#243 = PRODUCT_DEFINITION_FORMATION_WITH_SPECIFIED_SOURCE ( 'ANY', '', #207, .NOT_KNOWN. ) ;
ENDSEC;
END-ISO-10303-21;
