ISO-10303-21;
HEADER;
FILE_DESCRIPTION (( 'STEP AP203' ),
    '1' );
FILE_NAME ('321390.step',
    '2021-11-26T10:03:19',
    ( '' ),
    ( '' ),
    'SwSTEP 2.0',
    'SolidWorks 2019',
    '' );
FILE_SCHEMA (( 'CONFIG_CONTROL_DESIGN' ));
ENDSEC;

DATA;
#1 = CARTESIAN_POINT ( 'NONE',  ( 4.622773098606698772E-14, -1.195819768207146764E-15, 13.24014837821933632 ) ) ;
#2 = DIRECTION ( 'NONE',  ( 1.728388712624607565E-30, -1.000000000000000000, 4.950302020509413661E-16 ) ) ;
#3 = UNCERTAINTY_MEASURE_WITH_UNIT (LENGTH_MEASURE( 1.000000000000000082E-05 ), #33, 'distance_accuracy_value', 'NONE');
#4 = VERTEX_POINT ( 'NONE', #132 ) ;
#5 = ORIENTED_EDGE ( 'NONE', *, *, #237, .T. ) ;
#6 = PERSON_AND_ORGANIZATION_ROLE ( 'creator' ) ;
#7 = CARTESIAN_POINT ( 'NONE',  ( 0.0000000000000000000, 0.0000000000000000000, 0.0000000000000000000 ) ) ;
#8 = CARTESIAN_POINT ( 'NONE',  ( 4.622773098606699403E-14, 2.433999999999998387, 13.24014837821933810 ) ) ;
#9 = PERSON_AND_ORGANIZATION_ROLE ( 'classification_officer' ) ;
#10 = PERSON_AND_ORGANIZATION ( #72, #158 ) ;
#11 = DIRECTION ( 'NONE',  ( -2.532036081363671324E-30, 1.000000000000000000, -7.127047970323800665E-16 ) ) ;
#12 = DATE_TIME_ROLE ( 'classification_date' ) ;
#13 = EDGE_LOOP ( 'NONE', ( #28 ) ) ;
#14 = PLANE ( 'NONE',  #152 ) ;
#15 = CARTESIAN_POINT ( 'NONE',  ( 2.779219145719134403E-13, -7.189289034394536528E-15, 79.60000000000000853 ) ) ;
#16 = CC_DESIGN_PERSON_AND_ORGANIZATION_ASSIGNMENT ( #233, #9, ( #106 ) ) ;
#17 = CARTESIAN_POINT ( 'NONE',  ( 4.622773098606699403E-14, 6.554273326854362804E-15, 13.24014837821933810 ) ) ;
#18 = EDGE_LOOP ( 'NONE', ( #130 ) ) ;
#19 = VERTEX_POINT ( 'NONE', #55 ) ;
#20 = DIRECTION ( 'NONE',  ( 0.0000000000000000000, 1.000000000000000000, 0.0000000000000000000 ) ) ;
#21 = CLOSED_SHELL ( 'NONE', ( #85, #162, #186, #228, #50 ) ) ;
#22 = EDGE_CURVE ( 'NONE', #4, #4, #23, .T. ) ;
#23 = CIRCLE ( 'NONE', #185, 2.203059892324148006 ) ;
#24 = EDGE_CURVE ( 'NONE', #155, #155, #166, .T. ) ;
#25 = CARTESIAN_POINT ( 'NONE',  ( 3.807743851129040469E-30, 5.398706236840999030E-31, 1.090581183627548127E-15 ) ) ;
#26 = PERSON_AND_ORGANIZATION ( #72, #158 ) ;
#27 = ADVANCED_BREP_SHAPE_REPRESENTATION ( '321390', ( #61, #150, #204 ), #193 ) ;
#28 = ORIENTED_EDGE ( 'NONE', *, *, #24, .F. ) ;
#29 = COORDINATED_UNIVERSAL_TIME_OFFSET ( 1, 0, .AHEAD. ) ;
#30 = DIRECTION ( 'NONE',  ( 1.728388712624607565E-30, -1.000000000000000000, 4.950302020509413661E-16 ) ) ;
#31 = APPROVAL_STATUS ( 'not_yet_approved' ) ;
#32 = AXIS2_PLACEMENT_3D ( 'NONE', #53, #211, #100 ) ;
#33 =( LENGTH_UNIT ( ) NAMED_UNIT ( * ) SI_UNIT ( .MILLI., .METRE. ) );
#34 = CARTESIAN_POINT ( 'NONE',  ( 4.622773098606698772E-14, -1.195819768207146764E-15, 13.24014837821933632 ) ) ;
#35 = CARTESIAN_POINT ( 'NONE',  ( 2.779219145719134403E-13, 1.999999999999988010, 79.60000000000000853 ) ) ;
#36 = APPROVAL_DATE_TIME ( #147, #108 ) ;
#37 = PERSON_AND_ORGANIZATION_ROLE ( 'design_supplier' ) ;
#38 = DIRECTION ( 'NONE',  ( 3.491481338843133355E-15, -9.031770143711729009E-17, 1.000000000000000000 ) ) ;
#39 = DIRECTION ( 'NONE',  ( 1.000000000000000000, 0.0000000000000000000, 0.0000000000000000000 ) ) ;
#40 = DIRECTION ( 'NONE',  ( 0.0000000000000000000, 1.000000000000000000, 0.0000000000000000000 ) ) ;
#41 = DATE_AND_TIME ( #221, #121 ) ;
#42 = AXIS2_PLACEMENT_3D ( 'NONE', #7, #161, #60 ) ;
#43 = ORIENTED_EDGE ( 'NONE', *, *, #151, .F. ) ;
#44 = APPROVAL ( #31, 'UNSPECIFIED' ) ;
#45 = DIRECTION ( 'NONE',  ( -1.728388712624607565E-30, 1.000000000000000000, -4.950302020509413661E-16 ) ) ;
#46 = APPROVAL ( #214, 'UNSPECIFIED' ) ;
#47 = DIRECTION ( 'NONE',  ( 0.0000000000000000000, 1.000000000000000000, 0.0000000000000000000 ) ) ;
#48 = AXIS2_PLACEMENT_3D ( 'NONE', #125, #110, #11 ) ;
#49 =( NAMED_UNIT ( * ) SI_UNIT ( $, .STERADIAN. ) SOLID_ANGLE_UNIT ( ) );
#50 = ADVANCED_FACE ( 'NONE', ( #199 ), #183, .T. ) ;
#51 = DIRECTION ( 'NONE',  ( -3.491481338843133355E-15, 9.031770143711729009E-17, -1.000000000000000000 ) ) ;
#52 = AXIS2_PLACEMENT_3D ( 'NONE', #15, #89, #20 ) ;
#53 = CARTESIAN_POINT ( 'NONE',  ( 4.885231259955590439E-14, -1.263712492114123682E-15, 13.99185842870425134 ) ) ;
#54 = APPROVAL_PERSON_ORGANIZATION ( #26, #46, #87 ) ;
#55 = CARTESIAN_POINT ( 'NONE',  ( 4.622773098606698772E-14, 2.433999999999998387, 13.24014837821933632 ) ) ;
#56 = DIRECTION ( 'NONE',  ( -3.491481338843133355E-15, -4.950302020509413661E-16, -1.000000000000000000 ) ) ;
#57 = CC_DESIGN_PERSON_AND_ORGANIZATION_ASSIGNMENT ( #10, #184, ( #207 ) ) ;
#58 = EDGE_LOOP ( 'NONE', ( #71 ) ) ;
#59 = APPROVAL_DATE_TIME ( #182, #46 ) ;
#60 = DIRECTION ( 'NONE',  ( 3.153425691349006731E-31, 1.000000000000000000, 9.031770143711729009E-17 ) ) ;
#61 = MANIFOLD_SOLID_BREP ( 'Corps-Déplacer/Copier1[1]', #21 ) ;
#62 = PLANE ( 'NONE',  #109 ) ;
#63 = LOCAL_TIME ( 11, 3, 19.00000000000000000, #29 ) ;
#64 = APPROVAL_ROLE ( '' ) ;
#65 = CC_DESIGN_PERSON_AND_ORGANIZATION_ASSIGNMENT ( #217, #6, ( #172 ) ) ;
#66 = PERSON_AND_ORGANIZATION ( #72, #158 ) ;
#67 = APPROVAL_ROLE ( '' ) ;
#68 = AXIS2_PLACEMENT_3D ( 'NONE', #153, #76, #118 ) ;
#69 = CC_DESIGN_APPROVAL ( #46, ( #207 ) ) ;
#70 = ADVANCED_FACE ( 'NONE', ( #238 ), #62, .T. ) ;
#71 = ORIENTED_EDGE ( 'NONE', *, *, #24, .T. ) ;
#72 = PERSON ( 'UNSPECIFIED', 'UNSPECIFIED', 'UNSPECIFIED', ('UNSPECIFIED'), ('UNSPECIFIED'), ('UNSPECIFIED') ) ;
#73 = ORIENTED_EDGE ( 'NONE', *, *, #151, .T. ) ;
#74 = SHAPE_DEFINITION_REPRESENTATION ( #154, #27 ) ;
#75 = FACE_OUTER_BOUND ( 'NONE', #133, .T. ) ;
#76 = DIRECTION ( 'NONE',  ( -3.491481338843133355E-15, -4.950302020509413661E-16, -1.000000000000000000 ) ) ;
#77 = CARTESIAN_POINT ( 'NONE',  ( 3.807743851129040469E-30, 5.398706236840999030E-31, 1.090581183627548127E-15 ) ) ;
#78 = CARTESIAN_POINT ( 'NONE',  ( 4.622773098606698772E-14, 2.433999999999998387, 13.24014837821933632 ) ) ;
#79 = MECHANICAL_CONTEXT ( 'NONE', #210, 'mechanical' ) ;
#80 = CC_DESIGN_PERSON_AND_ORGANIZATION_ASSIGNMENT ( #101, #138, ( #156 ) ) ;
#81 = CYLINDRICAL_SURFACE ( 'NONE', #42, 1.999999999999993561 ) ;
#82 = EDGE_LOOP ( 'NONE', ( #90 ) ) ;
#83 = DIRECTION ( 'NONE',  ( -3.491481338843133355E-15, 9.031770143711729009E-17, -1.000000000000000000 ) ) ;
#84 = COORDINATED_UNIVERSAL_TIME_OFFSET ( 1, 0, .AHEAD. ) ;
#85 = ADVANCED_FACE ( 'NONE', ( #127 ), #145, .T. ) ;
#86 = DATE_AND_TIME ( #124, #175 ) ;
#87 = APPROVAL_ROLE ( '' ) ;
#88 = EDGE_LOOP ( 'NONE', ( #190 ) ) ;
#89 = DIRECTION ( 'NONE',  ( -3.491481338843133355E-15, 9.031770143711729009E-17, -1.000000000000000000 ) ) ;
#90 = ORIENTED_EDGE ( 'NONE', *, *, #22, .T. ) ;
#91 = APPROVAL_DATE_TIME ( #41, #44 ) ;
#92 = COORDINATED_UNIVERSAL_TIME_OFFSET ( 1, 0, .AHEAD. ) ;
#93 = CC_DESIGN_APPROVAL ( #108, ( #172 ) ) ;
#94 = EDGE_CURVE ( 'NONE', #227, #227, #203, .T. ) ;
#95 = CARTESIAN_POINT ( 'NONE',  ( -1.903871925564520235E-30, 2.203059892324148006, -5.452905918137740633E-16 ) ) ;
#96 = DIRECTION ( 'NONE',  ( -1.728388712624607565E-30, 1.000000000000000000, -4.950302020509413661E-16 ) ) ;
#97 = CIRCLE ( 'NONE', #191, 2.433999999999999719 ) ;
#98 = DIRECTION ( 'NONE',  ( -3.491481338843133355E-15, 9.031770143711729009E-17, -1.000000000000000000 ) ) ;
#99 = ORIENTED_EDGE ( 'NONE', *, *, #226, .T. ) ;
#100 = DIRECTION ( 'NONE',  ( 0.0000000000000000000, 1.000000000000000000, 0.0000000000000000000 ) ) ;
#101 = PERSON_AND_ORGANIZATION ( #72, #158 ) ;
#102 = CONICAL_SURFACE ( 'NONE', #105, 1.999999999999995337, 0.7853981633974516097 ) ;
#103 = APPLICATION_PROTOCOL_DEFINITION ( 'international standard', 'config_control_design', 1994, #210 ) ;
#104 = COORDINATED_UNIVERSAL_TIME_OFFSET ( 1, 0, .AHEAD. ) ;
#105 = AXIS2_PLACEMENT_3D ( 'NONE', #229, #114, #40 ) ;
#106 = SECURITY_CLASSIFICATION ( '', '', #197 ) ;
#107 = FACE_OUTER_BOUND ( 'NONE', #179, .T. ) ;
#108 = APPROVAL ( #142, 'UNSPECIFIED' ) ;
#109 = AXIS2_PLACEMENT_3D ( 'NONE', #17, #220, #2 ) ;
#110 = DIRECTION ( 'NONE',  ( -3.491481338843133355E-15, -4.950302020509413661E-16, -1.000000000000000000 ) ) ;
#111 = ADVANCED_FACE ( 'NONE', ( #169 ), #14, .T. ) ;
#112 = CARTESIAN_POINT ( 'NONE',  ( 1.396592535537252948E-15, 2.433999999999997943, 0.3999999999999999112 ) ) ;
#113 = CONICAL_SURFACE ( 'NONE', #239, 2.433999999999999719, 0.5235987755982932645 ) ;
#114 = DIRECTION ( 'NONE',  ( -3.491481338843133355E-15, 9.031770143711729009E-17, -1.000000000000000000 ) ) ;
#115 = AXIS2_PLACEMENT_3D ( 'NONE', #218, #38, #201 ) ;
#116 = APPROVAL_PERSON_ORGANIZATION ( #66, #108, #64 ) ;
#117 = VERTEX_POINT ( 'NONE', #213 ) ;
#118 = DIRECTION ( 'NONE',  ( -1.740774805937519656E-30, 1.000000000000000000, -4.899845479597600631E-16 ) ) ;
#119 = CALENDAR_DATE ( 2021, 26, 11 ) ;
#120 = CYLINDRICAL_SURFACE ( 'NONE', #192, 2.433999999999994834 ) ;
#121 = LOCAL_TIME ( 11, 3, 19.00000000000000000, #92 ) ;
#122 = DIRECTION ( 'NONE',  ( -1.728388712624607565E-30, 1.000000000000000000, -4.950302020509413661E-16 ) ) ;
#123 = ORIENTED_EDGE ( 'NONE', *, *, #22, .F. ) ;
#124 = CALENDAR_DATE ( 2021, 26, 11 ) ;
#125 = CARTESIAN_POINT ( 'NONE',  ( 4.622773098606699403E-14, 6.554273326854362804E-15, 13.24014837821933810 ) ) ;
#126 = FACE_OUTER_BOUND ( 'NONE', #159, .T. ) ;
#127 = FACE_OUTER_BOUND ( 'NONE', #18, .T. ) ;
#128 = CC_DESIGN_APPROVAL ( #44, ( #106 ) ) ;
#129 = EDGE_LOOP ( 'NONE', ( #5 ) ) ;
#130 = ORIENTED_EDGE ( 'NONE', *, *, #237, .F. ) ;
#131 = APPROVAL_PERSON_ORGANIZATION ( #241, #44, #67 ) ;
#132 = CARTESIAN_POINT ( 'NONE',  ( 0.0000000000000000000, 2.203059892324148006, 0.0000000000000000000 ) ) ;
#133 = EDGE_LOOP ( 'NONE', ( #168 ) ) ;
#134 = DIRECTION ( 'NONE',  ( -3.491481338843133355E-15, 9.031770143711729009E-17, -1.000000000000000000 ) ) ;
#135 = CARTESIAN_POINT ( 'NONE',  ( 4.885231259955590439E-14, 1.999999999999990452, 13.99185842870425134 ) ) ;
#136 = CC_DESIGN_PERSON_AND_ORGANIZATION_ASSIGNMENT ( #160, #37, ( #207 ) ) ;
#137 = FACE_BOUND ( 'NONE', #129, .T. ) ;
#138 = PERSON_AND_ORGANIZATION_ROLE ( 'design_owner' ) ;
#139 = FACE_OUTER_BOUND ( 'NONE', #206, .T. ) ;
#140 = CC_DESIGN_DATE_AND_TIME_ASSIGNMENT ( #86, #12, ( #106 ) ) ;
#141 = ORIENTED_EDGE ( 'NONE', *, *, #94, .F. ) ;
#142 = APPROVAL_STATUS ( 'not_yet_approved' ) ;
#143 = EDGE_LOOP ( 'NONE', ( #240 ) ) ;
#144 = CALENDAR_DATE ( 2021, 26, 11 ) ;
#145 = PLANE ( 'NONE',  #115 ) ;
#146 = DIRECTION ( 'NONE',  ( 0.0000000000000000000, 0.0000000000000000000, 1.000000000000000000 ) ) ;
#147 = DATE_AND_TIME ( #144, #208 ) ;
#148 = PRODUCT_RELATED_PRODUCT_CATEGORY ( 'detail', '', ( #156 ) ) ;
#149 = CLOSED_SHELL ( 'NONE', ( #70, #189, #178, #111 ) ) ;
#150 = MANIFOLD_SOLID_BREP ( 'Corps-Déplacer/Copier1[2]', #149 ) ;
#151 = EDGE_CURVE ( 'NONE', #212, #212, #243, .T. ) ;
#152 = AXIS2_PLACEMENT_3D ( 'NONE', #95, #56, #96 ) ;
#153 = CARTESIAN_POINT ( 'NONE',  ( 1.396592535537257089E-15, 1.980120808203770888E-16, 0.4000000000000010769 ) ) ;
#154 = PRODUCT_DEFINITION_SHAPE ( 'NONE', 'NONE',  #172 ) ;
#155 = VERTEX_POINT ( 'NONE', #135 ) ;
#156 = PRODUCT ( '321390', '321390', '', ( #79 ) ) ;
#157 = CIRCLE ( 'NONE', #167, 1.599999999999994982 ) ;
#158 = ORGANIZATION ( 'UNSPECIFIED', 'UNSPECIFIED', '' ) ;
#159 = EDGE_LOOP ( 'NONE', ( #73 ) ) ;
#160 = PERSON_AND_ORGANIZATION ( #72, #158 ) ;
#161 = DIRECTION ( 'NONE',  ( -3.491481338843133355E-15, 9.031770143711729009E-17, -1.000000000000000000 ) ) ;
#162 = ADVANCED_FACE ( 'NONE', ( #137, #75 ), #102, .T. ) ;
#163 = DIRECTION ( 'NONE',  ( 3.153425691349006731E-31, 1.000000000000000000, 9.031770143711729009E-17 ) ) ;
#164 = CARTESIAN_POINT ( 'NONE',  ( 0.0000000000000000000, 0.0000000000000000000, 0.0000000000000000000 ) ) ;
#165 = EDGE_LOOP ( 'NONE', ( #141 ) ) ;
#166 = CIRCLE ( 'NONE', #32, 1.999999999999991784 ) ;
#167 = AXIS2_PLACEMENT_3D ( 'NONE', #196, #98, #47 ) ;
#168 = ORIENTED_EDGE ( 'NONE', *, *, #226, .F. ) ;
#169 = FACE_OUTER_BOUND ( 'NONE', #82, .T. ) ;
#170 = EDGE_LOOP ( 'NONE', ( #123 ) ) ;
#171 = CONICAL_SURFACE ( 'NONE', #198, 2.203059892324148006, 0.5235987755982979275 ) ;
#172 = PRODUCT_DEFINITION ( 'UNKNOWN', '', #207, #194 ) ;
#173 = DIRECTION ( 'NONE',  ( -3.491481338843133355E-15, -4.950302020509413661E-16, -1.000000000000000000 ) ) ;
#174 = CIRCLE ( 'NONE', #52, 1.999999999999995337 ) ;
#175 = LOCAL_TIME ( 11, 3, 19.00000000000000000, #84 ) ;
#176 = DIRECTION ( 'NONE',  ( 0.0000000000000000000, 1.000000000000000000, 0.0000000000000000000 ) ) ;
#177 = LOCAL_TIME ( 11, 3, 19.00000000000000000, #104 ) ;
#178 = ADVANCED_FACE ( 'NONE', ( #126, #202 ), #171, .T. ) ;
#179 = EDGE_LOOP ( 'NONE', ( #99 ) ) ;
#180 = DIRECTION ( 'NONE',  ( 0.0000000000000000000, 1.000000000000000000, 0.0000000000000000000 ) ) ;
#181 = APPLICATION_PROTOCOL_DEFINITION ( 'international standard', 'config_control_design', 1994, #234 ) ;
#182 = DATE_AND_TIME ( #119, #177 ) ;
#183 = PLANE ( 'NONE',  #225 ) ;
#184 = PERSON_AND_ORGANIZATION_ROLE ( 'creator' ) ;
#185 = AXIS2_PLACEMENT_3D ( 'NONE', #77, #231, #122 ) ;
#186 = ADVANCED_FACE ( 'NONE', ( #107, #222 ), #81, .T. ) ;
#187 = DATE_TIME_ROLE ( 'creation_date' ) ;
#188 = EDGE_LOOP ( 'NONE', ( #43 ) ) ;
#189 = ADVANCED_FACE ( 'NONE', ( #139, #215 ), #120, .T. ) ;
#190 = ORIENTED_EDGE ( 'NONE', *, *, #242, .F. ) ;
#191 = AXIS2_PLACEMENT_3D ( 'NONE', #34, #134, #180 ) ;
#192 = AXIS2_PLACEMENT_3D ( 'NONE', #236, #173, #45 ) ;
#193 =( GEOMETRIC_REPRESENTATION_CONTEXT ( 3 ) GLOBAL_UNCERTAINTY_ASSIGNED_CONTEXT ( ( #3 ) ) GLOBAL_UNIT_ASSIGNED_CONTEXT ( ( #33, #195, #49 ) ) REPRESENTATION_CONTEXT ( 'NONE', 'WORKASPACE' ) );
#194 = DESIGN_CONTEXT ( 'detailed design', #234, 'design' ) ;
#195 =( NAMED_UNIT ( * ) PLANE_ANGLE_UNIT ( ) SI_UNIT ( $, .RADIAN. ) );
#196 = CARTESIAN_POINT ( 'NONE',  ( 2.793185071074506684E-13, -7.225416114969383207E-15, 80.00000000000000000 ) ) ;
#197 = SECURITY_CLASSIFICATION_LEVEL ( 'unclassified' ) ;
#198 = AXIS2_PLACEMENT_3D ( 'NONE', #25, #205, #30 ) ;
#199 = FACE_OUTER_BOUND ( 'NONE', #143, .T. ) ;
#200 = CALENDAR_DATE ( 2021, 26, 11 ) ;
#201 = DIRECTION ( 'NONE',  ( -3.153425691349006731E-31, -1.000000000000000000, -9.031770143711729009E-17 ) ) ;
#202 = FACE_BOUND ( 'NONE', #170, .T. ) ;
#203 = CIRCLE ( 'NONE', #48, 2.433999999999991726 ) ;
#204 = AXIS2_PLACEMENT_3D ( 'NONE', #164, #146, #39 ) ;
#205 = DIRECTION ( 'NONE',  ( 3.491481338843133355E-15, 4.950302020509413661E-16, 1.000000000000000000 ) ) ;
#206 = EDGE_LOOP ( 'NONE', ( #216 ) ) ;
#207 = PRODUCT_DEFINITION_FORMATION_WITH_SPECIFIED_SOURCE ( 'ANY', '', #156, .NOT_KNOWN. ) ;
#208 = LOCAL_TIME ( 11, 3, 19.00000000000000000, #219 ) ;
#209 = VERTEX_POINT ( 'NONE', #35 ) ;
#210 = APPLICATION_CONTEXT ( 'configuration controlled 3d designs of mechanical parts and assemblies' ) ;
#211 = DIRECTION ( 'NONE',  ( -3.491481338843133355E-15, 9.031770143711729009E-17, -1.000000000000000000 ) ) ;
#212 = VERTEX_POINT ( 'NONE', #112 ) ;
#213 = CARTESIAN_POINT ( 'NONE',  ( 2.793185071074506684E-13, 1.599999999999987876, 80.00000000000000000 ) ) ;
#214 = APPROVAL_STATUS ( 'not_yet_approved' ) ;
#215 = FACE_OUTER_BOUND ( 'NONE', #188, .T. ) ;
#216 = ORIENTED_EDGE ( 'NONE', *, *, #94, .T. ) ;
#217 = PERSON_AND_ORGANIZATION ( #72, #158 ) ;
#218 = CARTESIAN_POINT ( 'NONE',  ( 2.793185071074506684E-13, -7.225416114969383207E-15, 80.00000000000000000 ) ) ;
#219 = COORDINATED_UNIVERSAL_TIME_OFFSET ( 1, 0, .AHEAD. ) ;
#220 = DIRECTION ( 'NONE',  ( 3.491481338843133355E-15, 4.950302020509413661E-16, 1.000000000000000000 ) ) ;
#221 = CALENDAR_DATE ( 2021, 26, 11 ) ;
#222 = FACE_OUTER_BOUND ( 'NONE', #13, .T. ) ;
#223 = CC_DESIGN_SECURITY_CLASSIFICATION ( #106, ( #207 ) ) ;
#224 = CC_DESIGN_DATE_AND_TIME_ASSIGNMENT ( #235, #187, ( #172 ) ) ;
#225 = AXIS2_PLACEMENT_3D ( 'NONE', #8, #83, #163 ) ;
#226 = EDGE_CURVE ( 'NONE', #209, #209, #174, .T. ) ;
#227 = VERTEX_POINT ( 'NONE', #78 ) ;
#228 = ADVANCED_FACE ( 'NONE', ( #232, #230 ), #113, .T. ) ;
#229 = CARTESIAN_POINT ( 'NONE',  ( 2.779219145719134403E-13, -7.189289034394536528E-15, 79.60000000000000853 ) ) ;
#230 = FACE_OUTER_BOUND ( 'NONE', #88, .T. ) ;
#231 = DIRECTION ( 'NONE',  ( -3.491481338843133355E-15, -4.950302020509413661E-16, -1.000000000000000000 ) ) ;
#232 = FACE_BOUND ( 'NONE', #58, .T. ) ;
#233 = PERSON_AND_ORGANIZATION ( #72, #158 ) ;
#234 = APPLICATION_CONTEXT ( 'configuration controlled 3d designs of mechanical parts and assemblies' ) ;
#235 = DATE_AND_TIME ( #200, #63 ) ;
#236 = CARTESIAN_POINT ( 'NONE',  ( 0.0000000000000000000, 0.0000000000000000000, 0.0000000000000000000 ) ) ;
#237 = EDGE_CURVE ( 'NONE', #117, #117, #157, .T. ) ;
#238 = FACE_OUTER_BOUND ( 'NONE', #165, .T. ) ;
#239 = AXIS2_PLACEMENT_3D ( 'NONE', #1, #51, #176 ) ;
#240 = ORIENTED_EDGE ( 'NONE', *, *, #242, .T. ) ;
#241 = PERSON_AND_ORGANIZATION ( #72, #158 ) ;
#242 = EDGE_CURVE ( 'NONE', #19, #19, #97, .T. ) ;
#243 = CIRCLE ( 'NONE', #68, 2.433999999999997943 ) ;
ENDSEC;
END-ISO-10303-21;
