ISO-10303-21;
HEADER;
FILE_DESCRIPTION (( 'STEP AP203' ),
    '1' );
FILE_NAME ('321389.step',
    '2021-11-26T10:03:18',
    ( '' ),
    ( '' ),
    'SwSTEP 2.0',
    'SolidWorks 2019',
    '' );
FILE_SCHEMA (( 'CONFIG_CONTROL_DESIGN' ));
ENDSEC;

DATA;
#1 = ADVANCED_FACE ( 'NONE', ( #179 ), #14, .T. ) ;
#2 = APPROVAL_DATE_TIME ( #161, #32 ) ;
#3 = DIRECTION ( 'NONE',  ( -3.491481338843133355E-15, 9.031770143711729009E-17, -1.000000000000000000 ) ) ;
#4 = DESIGN_CONTEXT ( 'detailed design', #189, 'design' ) ;
#5 = DIRECTION ( 'NONE',  ( 1.726699938693502274E-30, -1.000000000000000000, 4.945465179732642372E-16 ) ) ;
#6 = AXIS2_PLACEMENT_3D ( 'NONE', #133, #44, #180 ) ;
#7 = CARTESIAN_POINT ( 'NONE',  ( 3.795389881320751865E-30, 5.375932642905265935E-31, 1.087042866045595377E-15 ) ) ;
#8 = CARTESIAN_POINT ( 'NONE',  ( 4.885231259955590439E-14, 1.999999999999990452, 13.99185842870425134 ) ) ;
#9 = ADVANCED_FACE ( 'NONE', ( #198, #201 ), #120, .T. ) ;
#10 = COORDINATED_UNIVERSAL_TIME_OFFSET ( 1, 0, .AHEAD. ) ;
#11 = DIRECTION ( 'NONE',  ( -3.491481338843133355E-15, 9.031770143711729009E-17, -1.000000000000000000 ) ) ;
#12 = CALENDAR_DATE ( 2021, 26, 11 ) ;
#13 = CC_DESIGN_PERSON_AND_ORGANIZATION_ASSIGNMENT ( #158, #154, ( #186 ) ) ;
#14 = PLANE ( 'NONE',  #229 ) ;
#15 = AXIS2_PLACEMENT_3D ( 'NONE', #41, #109, #94 ) ;
#16 = EDGE_LOOP ( 'NONE', ( #218 ) ) ;
#17 = APPROVAL ( #136, 'UNSPECIFIED' ) ;
#18 = PERSON_AND_ORGANIZATION ( #137, #38 ) ;
#19 = DIRECTION ( 'NONE',  ( -1.726699938693502274E-30, 1.000000000000000000, -4.945465179732642372E-16 ) ) ;
#20 = CONICAL_SURFACE ( 'NONE', #237, 2.198059892324147668, 0.5235987755982979275 ) ;
#21 = PLANE ( 'NONE',  #75 ) ;
#22 = PRODUCT_DEFINITION_FORMATION_WITH_SPECIFIED_SOURCE ( 'ANY', '', #186, .NOT_KNOWN. ) ;
#23 = APPROVAL_ROLE ( '' ) ;
#24 = DIRECTION ( 'NONE',  ( -3.491481338843133355E-15, 9.031770143711729009E-17, -1.000000000000000000 ) ) ;
#25 = DIRECTION ( 'NONE',  ( 1.000000000000000000, 0.0000000000000000000, 0.0000000000000000000 ) ) ;
#26 = DIRECTION ( 'NONE',  ( -1.726699938693502625E-30, 1.000000000000000000, -4.945465179732642372E-16 ) ) ;
#27 = DIRECTION ( 'NONE',  ( -3.491481338843133355E-15, 9.031770143711729009E-17, -1.000000000000000000 ) ) ;
#28 = LOCAL_TIME ( 11, 3, 18.00000000000000000, #226 ) ;
#29 = CC_DESIGN_PERSON_AND_ORGANIZATION_ASSIGNMENT ( #142, #105, ( #22 ) ) ;
#30 = VERTEX_POINT ( 'NONE', #157 ) ;
#31 = CARTESIAN_POINT ( 'NONE',  ( 1.396592535537252948E-15, 2.428999999999997605, 0.3999999999999999112 ) ) ;
#32 = APPROVAL ( #212, 'UNSPECIFIED' ) ;
#33 =( NAMED_UNIT ( * ) SI_UNIT ( $, .STERADIAN. ) SOLID_ANGLE_UNIT ( ) );
#34 = AXIS2_PLACEMENT_3D ( 'NONE', #185, #27, #77 ) ;
#35 = EDGE_LOOP ( 'NONE', ( #104 ) ) ;
#36 = CARTESIAN_POINT ( 'NONE',  ( 2.779219145719134403E-13, -7.189289034394536528E-15, 79.60000000000000853 ) ) ;
#37 = DIRECTION ( 'NONE',  ( 0.0000000000000000000, 1.000000000000000000, 0.0000000000000000000 ) ) ;
#38 = ORGANIZATION ( 'UNSPECIFIED', 'UNSPECIFIED', '' ) ;
#39 = EDGE_LOOP ( 'NONE', ( #102 ) ) ;
#40 = DIRECTION ( 'NONE',  ( -3.491481338843133355E-15, -4.945465179732642372E-16, -1.000000000000000000 ) ) ;
#41 = CARTESIAN_POINT ( 'NONE',  ( 1.396592535537257089E-15, 1.978186071893062520E-16, 0.4000000000000010769 ) ) ;
#42 = UNCERTAINTY_MEASURE_WITH_UNIT (LENGTH_MEASURE( 1.000000000000000082E-05 ), #172, 'distance_accuracy_value', 'NONE');
#43 = CC_DESIGN_PERSON_AND_ORGANIZATION_ASSIGNMENT ( #210, #50, ( #22 ) ) ;
#44 = DIRECTION ( 'NONE',  ( -3.491481338843133355E-15, 9.031770143711729009E-17, -1.000000000000000000 ) ) ;
#45 = ADVANCED_FACE ( 'NONE', ( #73 ), #159, .T. ) ;
#46 = DIRECTION ( 'NONE',  ( 3.491481338843133355E-15, 4.945465179732642372E-16, 1.000000000000000000 ) ) ;
#47 = APPROVAL_PERSON_ORGANIZATION ( #68, #32, #23 ) ;
#48 = DATE_AND_TIME ( #98, #200 ) ;
#49 = CC_DESIGN_APPROVAL ( #61, ( #233 ) ) ;
#50 = PERSON_AND_ORGANIZATION_ROLE ( 'design_supplier' ) ;
#51 = ORIENTED_EDGE ( 'NONE', *, *, #92, .T. ) ;
#52 = AXIS2_PLACEMENT_3D ( 'NONE', #145, #11, #37 ) ;
#53 = CARTESIAN_POINT ( 'NONE',  ( 4.885231259955590439E-14, -1.263712492114123682E-15, 13.99185842870425134 ) ) ;
#54 = CIRCLE ( 'NONE', #135, 1.999999999999995337 ) ;
#55 = EDGE_LOOP ( 'NONE', ( #177 ) ) ;
#56 = DIRECTION ( 'NONE',  ( 0.0000000000000000000, 1.000000000000000000, 0.0000000000000000000 ) ) ;
#57 = ADVANCED_FACE ( 'NONE', ( #124, #195 ), #78, .T. ) ;
#58 = CARTESIAN_POINT ( 'NONE',  ( 4.625796810142976276E-14, -1.196601942445706258E-15, 13.24880863225718031 ) ) ;
#59 = CYLINDRICAL_SURFACE ( 'NONE', #232, 2.428999999999994497 ) ;
#60 = FACE_OUTER_BOUND ( 'NONE', #55, .T. ) ;
#61 = APPROVAL ( #230, 'UNSPECIFIED' ) ;
#62 = CC_DESIGN_APPROVAL ( #32, ( #22 ) ) ;
#63 = PERSON_AND_ORGANIZATION_ROLE ( 'creator' ) ;
#64 = MANIFOLD_SOLID_BREP ( 'Corps-Déplacer/Copier1[1]', #231 ) ;
#65 = DATE_AND_TIME ( #95, #192 ) ;
#66 = APPROVAL_DATE_TIME ( #48, #61 ) ;
#67 = CARTESIAN_POINT ( 'NONE',  ( 2.793185071074506684E-13, 1.599999999999987876, 80.00000000000000000 ) ) ;
#68 = PERSON_AND_ORGANIZATION ( #137, #38 ) ;
#69 = AXIS2_PLACEMENT_3D ( 'NONE', #36, #106, #103 ) ;
#70 = EDGE_CURVE ( 'NONE', #168, #168, #204, .T. ) ;
#71 = ORIENTED_EDGE ( 'NONE', *, *, #70, .T. ) ;
#72 = APPLICATION_PROTOCOL_DEFINITION ( 'international standard', 'config_control_design', 1994, #91 ) ;
#73 = FACE_OUTER_BOUND ( 'NONE', #164, .T. ) ;
#74 = DIRECTION ( 'NONE',  ( -3.491481338843133355E-15, -4.945465179732642372E-16, -1.000000000000000000 ) ) ;
#75 = AXIS2_PLACEMENT_3D ( 'NONE', #132, #222, #223 ) ;
#76 = CARTESIAN_POINT ( 'NONE',  ( 4.625796810142976907E-14, 6.552152176376915082E-15, 13.24880863225718208 ) ) ;
#77 = DIRECTION ( 'NONE',  ( 3.153425691349006731E-31, 1.000000000000000000, 9.031770143711729009E-17 ) ) ;
#78 = CONICAL_SURFACE ( 'NONE', #69, 1.999999999999995337, 0.7853981633974516097 ) ;
#79 = FACE_OUTER_BOUND ( 'NONE', #238, .T. ) ;
#80 = DATE_AND_TIME ( #96, #28 ) ;
#81 = APPROVAL_ROLE ( '' ) ;
#82 = APPLICATION_PROTOCOL_DEFINITION ( 'international standard', 'config_control_design', 1994, #189 ) ;
#83 = SECURITY_CLASSIFICATION ( '', '', #119 ) ;
#84 = CC_DESIGN_DATE_AND_TIME_ASSIGNMENT ( #156, #234, ( #233 ) ) ;
#85 = VERTEX_POINT ( 'NONE', #88 ) ;
#86 = VERTEX_POINT ( 'NONE', #67 ) ;
#87 = CALENDAR_DATE ( 2021, 26, 11 ) ;
#88 = CARTESIAN_POINT ( 'NONE',  ( 4.625796810142976276E-14, 2.428999999999998050, 13.24880863225718031 ) ) ;
#89 = ORIENTED_EDGE ( 'NONE', *, *, #134, .T. ) ;
#90 = EDGE_CURVE ( 'NONE', #86, #86, #221, .T. ) ;
#91 = APPLICATION_CONTEXT ( 'configuration controlled 3d designs of mechanical parts and assemblies' ) ;
#92 = EDGE_CURVE ( 'NONE', #140, #140, #54, .T. ) ;
#93 = DIRECTION ( 'NONE',  ( -3.491481338843133355E-15, -4.945465179732642372E-16, -1.000000000000000000 ) ) ;
#94 = DIRECTION ( 'NONE',  ( -1.744358121717547432E-30, 1.000000000000000000, -4.909931616854903075E-16 ) ) ;
#95 = CALENDAR_DATE ( 2021, 26, 11 ) ;
#96 = CALENDAR_DATE ( 2021, 26, 11 ) ;
#97 = APPROVAL_PERSON_ORGANIZATION ( #116, #17, #81 ) ;
#98 = CALENDAR_DATE ( 2021, 26, 11 ) ;
#99 = CC_DESIGN_APPROVAL ( #17, ( #83 ) ) ;
#100 = VERTEX_POINT ( 'NONE', #228 ) ;
#101 = AXIS2_PLACEMENT_3D ( 'NONE', #160, #147, #215 ) ;
#102 = ORIENTED_EDGE ( 'NONE', *, *, #90, .T. ) ;
#103 = DIRECTION ( 'NONE',  ( 0.0000000000000000000, 1.000000000000000000, 0.0000000000000000000 ) ) ;
#104 = ORIENTED_EDGE ( 'NONE', *, *, #208, .F. ) ;
#105 = PERSON_AND_ORGANIZATION_ROLE ( 'creator' ) ;
#106 = DIRECTION ( 'NONE',  ( -3.491481338843133355E-15, 9.031770143711729009E-17, -1.000000000000000000 ) ) ;
#107 = CYLINDRICAL_SURFACE ( 'NONE', #34, 1.999999999999993561 ) ;
#108 = CC_DESIGN_SECURITY_CLASSIFICATION ( #83, ( #22 ) ) ;
#109 = DIRECTION ( 'NONE',  ( -3.491481338843133355E-15, -4.945465179732642372E-16, -1.000000000000000000 ) ) ;
#110 = CARTESIAN_POINT ( 'NONE',  ( 2.779219145719134403E-13, -7.189289034394536528E-15, 79.60000000000000853 ) ) ;
#111 = FACE_BOUND ( 'NONE', #16, .T. ) ;
#112 = PRODUCT_DEFINITION_SHAPE ( 'NONE', 'NONE',  #233 ) ;
#113 = DATE_TIME_ROLE ( 'classification_date' ) ;
#114 = CIRCLE ( 'NONE', #15, 2.428999999999997605 ) ;
#115 = DIRECTION ( 'NONE',  ( -3.491481338843133355E-15, -4.945465179732642372E-16, -1.000000000000000000 ) ) ;
#116 = PERSON_AND_ORGANIZATION ( #137, #38 ) ;
#117 = VERTEX_POINT ( 'NONE', #31 ) ;
#118 = MECHANICAL_CONTEXT ( 'NONE', #91, 'mechanical' ) ;
#119 = SECURITY_CLASSIFICATION_LEVEL ( 'unclassified' ) ;
#120 = CONICAL_SURFACE ( 'NONE', #52, 2.428999999999999382, 0.5235987755982924874 ) ;
#121 = ORIENTED_EDGE ( 'NONE', *, *, #208, .T. ) ;
#122 = COORDINATED_UNIVERSAL_TIME_OFFSET ( 1, 0, .AHEAD. ) ;
#123 = LOCAL_TIME ( 11, 3, 18.00000000000000000, #10 ) ;
#124 = FACE_BOUND ( 'NONE', #39, .T. ) ;
#125 = EDGE_LOOP ( 'NONE', ( #121 ) ) ;
#126 = AXIS2_PLACEMENT_3D ( 'NONE', #162, #131, #25 ) ;
#127 = EDGE_LOOP ( 'NONE', ( #236 ) ) ;
#128 = CARTESIAN_POINT ( 'NONE',  ( 0.0000000000000000000, 0.0000000000000000000, 0.0000000000000000000 ) ) ;
#129 = DIRECTION ( 'NONE',  ( -3.491481338843133355E-15, 9.031770143711729009E-17, -1.000000000000000000 ) ) ;
#130 = AXIS2_PLACEMENT_3D ( 'NONE', #76, #115, #202 ) ;
#131 = DIRECTION ( 'NONE',  ( 0.0000000000000000000, 0.0000000000000000000, 1.000000000000000000 ) ) ;
#132 = CARTESIAN_POINT ( 'NONE',  ( 2.793185071074506684E-13, -7.225416114969383207E-15, 80.00000000000000000 ) ) ;
#133 = CARTESIAN_POINT ( 'NONE',  ( 2.793185071074506684E-13, -7.225416114969383207E-15, 80.00000000000000000 ) ) ;
#134 = EDGE_CURVE ( 'NONE', #100, #100, #235, .T. ) ;
#135 = AXIS2_PLACEMENT_3D ( 'NONE', #110, #3, #56 ) ;
#136 = APPROVAL_STATUS ( 'not_yet_approved' ) ;
#137 = PERSON ( 'UNSPECIFIED', 'UNSPECIFIED', 'UNSPECIFIED', ('UNSPECIFIED'), ('UNSPECIFIED'), ('UNSPECIFIED') ) ;
#138 = ADVANCED_FACE ( 'NONE', ( #227 ), #169, .T. ) ;
#139 = PERSON_AND_ORGANIZATION ( #137, #38 ) ;
#140 = VERTEX_POINT ( 'NONE', #171 ) ;
#141 = CIRCLE ( 'NONE', #130, 2.428999999999991388 ) ;
#142 = PERSON_AND_ORGANIZATION ( #137, #38 ) ;
#143 = ORIENTED_EDGE ( 'NONE', *, *, #170, .F. ) ;
#144 = CC_DESIGN_PERSON_AND_ORGANIZATION_ASSIGNMENT ( #188, #63, ( #233 ) ) ;
#145 = CARTESIAN_POINT ( 'NONE',  ( 4.625796810142976276E-14, -1.196601942445706258E-15, 13.24880863225718031 ) ) ;
#146 = ORIENTED_EDGE ( 'NONE', *, *, #90, .F. ) ;
#147 = DIRECTION ( 'NONE',  ( 3.491481338843133355E-15, 4.945465179732642372E-16, 1.000000000000000000 ) ) ;
#148 =( GEOMETRIC_REPRESENTATION_CONTEXT ( 3 ) GLOBAL_UNCERTAINTY_ASSIGNED_CONTEXT ( ( #42 ) ) GLOBAL_UNIT_ASSIGNED_CONTEXT ( ( #172, #197, #33 ) ) REPRESENTATION_CONTEXT ( 'NONE', 'WORKASPACE' ) );
#149 = FACE_OUTER_BOUND ( 'NONE', #211, .T. ) ;
#150 = DIRECTION ( 'NONE',  ( -1.726699938693502274E-30, 1.000000000000000000, -4.945465179732643358E-16 ) ) ;
#151 = DIRECTION ( 'NONE',  ( -3.491481338843133355E-15, 9.031770143711729009E-17, -1.000000000000000000 ) ) ;
#152 = COORDINATED_UNIVERSAL_TIME_OFFSET ( 1, 0, .AHEAD. ) ;
#153 = FACE_OUTER_BOUND ( 'NONE', #163, .T. ) ;
#154 = PERSON_AND_ORGANIZATION_ROLE ( 'design_owner' ) ;
#155 = ADVANCED_FACE ( 'NONE', ( #205, #111 ), #20, .T. ) ;
#156 = DATE_AND_TIME ( #87, #123 ) ;
#157 = CARTESIAN_POINT ( 'NONE',  ( 4.625796810142976276E-14, 2.428999999999998050, 13.24880863225718031 ) ) ;
#158 = PERSON_AND_ORGANIZATION ( #137, #38 ) ;
#159 = PLANE ( 'NONE',  #101 ) ;
#160 = CARTESIAN_POINT ( 'NONE',  ( 4.625796810142975645E-14, 6.552152176376912716E-15, 13.24880863225717853 ) ) ;
#161 = DATE_AND_TIME ( #12, #243 ) ;
#162 = CARTESIAN_POINT ( 'NONE',  ( 0.0000000000000000000, 0.0000000000000000000, 0.0000000000000000000 ) ) ;
#163 = EDGE_LOOP ( 'NONE', ( #146 ) ) ;
#164 = EDGE_LOOP ( 'NONE', ( #143 ) ) ;
#165 = EDGE_LOOP ( 'NONE', ( #193 ) ) ;
#166 = CARTESIAN_POINT ( 'NONE',  ( 3.795389881320751865E-30, 5.375932642905265935E-31, 1.087042866045595377E-15 ) ) ;
#167 = APPROVAL_PERSON_ORGANIZATION ( #139, #61, #173 ) ;
#168 = VERTEX_POINT ( 'NONE', #8 ) ;
#169 = PLANE ( 'NONE',  #174 ) ;
#170 = EDGE_CURVE ( 'NONE', #85, #85, #141, .T. ) ;
#171 = CARTESIAN_POINT ( 'NONE',  ( 2.779219145719134403E-13, 1.999999999999988010, 79.60000000000000853 ) ) ;
#172 =( LENGTH_UNIT ( ) NAMED_UNIT ( * ) SI_UNIT ( .MILLI., .METRE. ) );
#173 = APPROVAL_ROLE ( '' ) ;
#174 = AXIS2_PLACEMENT_3D ( 'NONE', #206, #24, #184 ) ;
#175 = ORIENTED_EDGE ( 'NONE', *, *, #170, .T. ) ;
#176 = ADVANCED_FACE ( 'NONE', ( #242, #79 ), #107, .T. ) ;
#177 = ORIENTED_EDGE ( 'NONE', *, *, #241, .F. ) ;
#178 = AXIS2_PLACEMENT_3D ( 'NONE', #58, #129, #203 ) ;
#179 = FACE_OUTER_BOUND ( 'NONE', #199, .T. ) ;
#180 = DIRECTION ( 'NONE',  ( 0.0000000000000000000, 1.000000000000000000, 0.0000000000000000000 ) ) ;
#181 = CLOSED_SHELL ( 'NONE', ( #45, #182, #155, #1 ) ) ;
#182 = ADVANCED_FACE ( 'NONE', ( #149, #60 ), #59, .T. ) ;
#183 = AXIS2_PLACEMENT_3D ( 'NONE', #166, #40, #26 ) ;
#184 = DIRECTION ( 'NONE',  ( 3.153425691349006731E-31, 1.000000000000000000, 9.031770143711729009E-17 ) ) ;
#185 = CARTESIAN_POINT ( 'NONE',  ( 0.0000000000000000000, 0.0000000000000000000, 0.0000000000000000000 ) ) ;
#186 = PRODUCT ( '321389', '321389', '', ( #118 ) ) ;
#187 = DIRECTION ( 'NONE',  ( 0.0000000000000000000, 1.000000000000000000, 0.0000000000000000000 ) ) ;
#188 = PERSON_AND_ORGANIZATION ( #137, #38 ) ;
#189 = APPLICATION_CONTEXT ( 'configuration controlled 3d designs of mechanical parts and assemblies' ) ;
#190 = CC_DESIGN_DATE_AND_TIME_ASSIGNMENT ( #65, #113, ( #83 ) ) ;
#191 = PERSON_AND_ORGANIZATION_ROLE ( 'classification_officer' ) ;
#192 = LOCAL_TIME ( 11, 3, 18.00000000000000000, #152 ) ;
#193 = ORIENTED_EDGE ( 'NONE', *, *, #241, .T. ) ;
#194 = SHAPE_DEFINITION_REPRESENTATION ( #112, #217 ) ;
#195 = FACE_OUTER_BOUND ( 'NONE', #127, .T. ) ;
#196 = ADVANCED_FACE ( 'NONE', ( #153 ), #21, .T. ) ;
#197 =( NAMED_UNIT ( * ) PLANE_ANGLE_UNIT ( ) SI_UNIT ( $, .RADIAN. ) );
#198 = FACE_BOUND ( 'NONE', #240, .T. ) ;
#199 = EDGE_LOOP ( 'NONE', ( #89 ) ) ;
#200 = LOCAL_TIME ( 11, 3, 18.00000000000000000, #209 ) ;
#201 = FACE_OUTER_BOUND ( 'NONE', #35, .T. ) ;
#202 = DIRECTION ( 'NONE',  ( -2.537248177043712171E-30, 1.000000000000000000, -7.141718715425332747E-16 ) ) ;
#203 = DIRECTION ( 'NONE',  ( 0.0000000000000000000, 1.000000000000000000, 0.0000000000000000000 ) ) ;
#204 = CIRCLE ( 'NONE', #207, 1.999999999999991784 ) ;
#205 = FACE_OUTER_BOUND ( 'NONE', #165, .T. ) ;
#206 = CARTESIAN_POINT ( 'NONE',  ( 4.625796810142975645E-14, 2.428999999999998050, 13.24880863225717853 ) ) ;
#207 = AXIS2_PLACEMENT_3D ( 'NONE', #53, #151, #187 ) ;
#208 = EDGE_CURVE ( 'NONE', #30, #30, #225, .T. ) ;
#209 = COORDINATED_UNIVERSAL_TIME_OFFSET ( 1, 0, .AHEAD. ) ;
#210 = PERSON_AND_ORGANIZATION ( #137, #38 ) ;
#211 = EDGE_LOOP ( 'NONE', ( #175 ) ) ;
#212 = APPROVAL_STATUS ( 'not_yet_approved' ) ;
#213 = APPROVAL_DATE_TIME ( #80, #17 ) ;
#214 = CC_DESIGN_PERSON_AND_ORGANIZATION_ASSIGNMENT ( #18, #191, ( #83 ) ) ;
#215 = DIRECTION ( 'NONE',  ( 1.726699938693502274E-30, -1.000000000000000000, 4.945465179732642372E-16 ) ) ;
#216 = MANIFOLD_SOLID_BREP ( 'Corps-Déplacer/Copier1[2]', #181 ) ;
#217 = ADVANCED_BREP_SHAPE_REPRESENTATION ( '321389', ( #64, #216, #126 ), #148 ) ;
#218 = ORIENTED_EDGE ( 'NONE', *, *, #134, .F. ) ;
#219 = EDGE_LOOP ( 'NONE', ( #51 ) ) ;
#220 = ORIENTED_EDGE ( 'NONE', *, *, #70, .F. ) ;
#221 = CIRCLE ( 'NONE', #6, 1.599999999999994982 ) ;
#222 = DIRECTION ( 'NONE',  ( 3.491481338843133355E-15, -9.031770143711729009E-17, 1.000000000000000000 ) ) ;
#223 = DIRECTION ( 'NONE',  ( -3.153425691349006731E-31, -1.000000000000000000, -9.031770143711729009E-17 ) ) ;
#224 = PRODUCT_RELATED_PRODUCT_CATEGORY ( 'detail', '', ( #186 ) ) ;
#225 = CIRCLE ( 'NONE', #178, 2.428999999999999382 ) ;
#226 = COORDINATED_UNIVERSAL_TIME_OFFSET ( 1, 0, .AHEAD. ) ;
#227 = FACE_OUTER_BOUND ( 'NONE', #125, .T. ) ;
#228 = CARTESIAN_POINT ( 'NONE',  ( -6.842277657836020854E-46, 2.198059892324147668, 0.0000000000000000000 ) ) ;
#229 = AXIS2_PLACEMENT_3D ( 'NONE', #239, #74, #19 ) ;
#230 = APPROVAL_STATUS ( 'not_yet_approved' ) ;
#231 = CLOSED_SHELL ( 'NONE', ( #196, #57, #176, #9, #138 ) ) ;
#232 = AXIS2_PLACEMENT_3D ( 'NONE', #128, #93, #150 ) ;
#233 = PRODUCT_DEFINITION ( 'UNKNOWN', '', #22, #4 ) ;
#234 = DATE_TIME_ROLE ( 'creation_date' ) ;
#235 = CIRCLE ( 'NONE', #183, 2.198059892324147668 ) ;
#236 = ORIENTED_EDGE ( 'NONE', *, *, #92, .F. ) ;
#237 = AXIS2_PLACEMENT_3D ( 'NONE', #7, #46, #5 ) ;
#238 = EDGE_LOOP ( 'NONE', ( #220 ) ) ;
#239 = CARTESIAN_POINT ( 'NONE',  ( -1.897694940660375932E-30, 2.198059892324147668, -5.435214330227976886E-16 ) ) ;
#240 = EDGE_LOOP ( 'NONE', ( #71 ) ) ;
#241 = EDGE_CURVE ( 'NONE', #117, #117, #114, .T. ) ;
#242 = FACE_OUTER_BOUND ( 'NONE', #219, .T. ) ;
#243 = LOCAL_TIME ( 11, 3, 18.00000000000000000, #122 ) ;
ENDSEC;
END-ISO-10303-21;
