ISO-10303-21;
HEADER;
FILE_DESCRIPTION (( 'STEP AP203' ),
    '1' );
FILE_NAME ('321388.step',
    '2021-11-26T10:03:17',
    ( '' ),
    ( '' ),
    'SwSTEP 2.0',
    'SolidWorks 2019',
    '' );
FILE_SCHEMA (( 'CONFIG_CONTROL_DESIGN' ));
ENDSEC;

DATA;
#1 = EDGE_LOOP ( 'NONE', ( #168 ) ) ;
#2 = FACE_OUTER_BOUND ( 'NONE', #97, .T. ) ;
#3 = APPROVAL_PERSON_ORGANIZATION ( #68, #88, #55 ) ;
#4 = ORIENTED_EDGE ( 'NONE', *, *, #56, .F. ) ;
#5 = CARTESIAN_POINT ( 'NONE',  ( 0.0000000000000000000, 0.0000000000000000000, 0.0000000000000000000 ) ) ;
#6 = CIRCLE ( 'NONE', #219, 1.599999999999994982 ) ;
#7 = ADVANCED_BREP_SHAPE_REPRESENTATION ( '321388', ( #221, #59, #164 ), #58 ) ;
#8 = CARTESIAN_POINT ( 'NONE',  ( -1.891528818938692346E-30, 2.193059892324148663, -5.417553855709367925E-16 ) ) ;
#9 = PRODUCT_DEFINITION ( 'UNKNOWN', '', #193, #94 ) ;
#10 = AXIS2_PLACEMENT_3D ( 'NONE', #5, #191, #232 ) ;
#11 = FACE_OUTER_BOUND ( 'NONE', #169, .T. ) ;
#12 = CALENDAR_DATE ( 2021, 26, 11 ) ;
#13 = ADVANCED_FACE ( 'NONE', ( #91, #241 ), #152, .T. ) ;
#14 = LOCAL_TIME ( 11, 3, 17.00000000000000000, #17 ) ;
#15 = CARTESIAN_POINT ( 'NONE',  ( 0.0000000000000000000, 0.0000000000000000000, 0.0000000000000000000 ) ) ;
#16 = PERSON_AND_ORGANIZATION ( #192, #223 ) ;
#17 = COORDINATED_UNIVERSAL_TIME_OFFSET ( 1, 0, .AHEAD. ) ;
#18 = PRODUCT ( '321388', '321388', '', ( #127 ) ) ;
#19 = DIRECTION ( 'NONE',  ( -3.491481338843133355E-15, 9.031770143711729009E-17, -1.000000000000000000 ) ) ;
#20 = EDGE_CURVE ( 'NONE', #212, #212, #80, .T. ) ;
#21 = ORIENTED_EDGE ( 'NONE', *, *, #166, .T. ) ;
#22 = CC_DESIGN_SECURITY_CLASSIFICATION ( #136, ( #193 ) ) ;
#23 = EDGE_LOOP ( 'NONE', ( #86 ) ) ;
#24 = ADVANCED_FACE ( 'NONE', ( #189 ), #79, .T. ) ;
#25 = CARTESIAN_POINT ( 'NONE',  ( 2.779219145719134403E-13, 1.999999999999988010, 79.60000000000000853 ) ) ;
#26 = FACE_OUTER_BOUND ( 'NONE', #23, .T. ) ;
#27 = AXIS2_PLACEMENT_3D ( 'NONE', #190, #122, #39 ) ;
#28 = FACE_OUTER_BOUND ( 'NONE', #204, .T. ) ;
#29 = EDGE_LOOP ( 'NONE', ( #207 ) ) ;
#30 = DIRECTION ( 'NONE',  ( -3.491481338843133355E-15, -4.940634658151523108E-16, -1.000000000000000000 ) ) ;
#31 = DIRECTION ( 'NONE',  ( 0.0000000000000000000, 1.000000000000000000, 0.0000000000000000000 ) ) ;
#32 = COORDINATED_UNIVERSAL_TIME_OFFSET ( 1, 0, .AHEAD. ) ;
#33 = PERSON_AND_ORGANIZATION ( #192, #223 ) ;
#34 = FACE_OUTER_BOUND ( 'NONE', #44, .T. ) ;
#35 = CLOSED_SHELL ( 'NONE', ( #24, #37, #133, #140, #50 ) ) ;
#36 = CARTESIAN_POINT ( 'NONE',  ( 1.396592535537257089E-15, 1.976253863260614617E-16, 0.4000000000000010769 ) ) ;
#37 = ADVANCED_FACE ( 'NONE', ( #206, #34 ), #60, .T. ) ;
#38 = DIRECTION ( 'NONE',  ( -3.491481338843133355E-15, -4.940634658151523108E-16, -1.000000000000000000 ) ) ;
#39 = DIRECTION ( 'NONE',  ( -2.542481774768637264E-30, 1.000000000000000000, -7.156449983402695075E-16 ) ) ;
#40 = DIRECTION ( 'NONE',  ( 0.0000000000000000000, 1.000000000000000000, 0.0000000000000000000 ) ) ;
#41 = AXIS2_PLACEMENT_3D ( 'NONE', #183, #114, #187 ) ;
#42 = VERTEX_POINT ( 'NONE', #233 ) ;
#43 = FACE_OUTER_BOUND ( 'NONE', #186, .T. ) ;
#44 = EDGE_LOOP ( 'NONE', ( #54 ) ) ;
#45 = CC_DESIGN_DATE_AND_TIME_ASSIGNMENT ( #177, #145, ( #136 ) ) ;
#46 = APPROVAL_DATE_TIME ( #104, #88 ) ;
#47 = AXIS2_PLACEMENT_3D ( 'NONE', #8, #30, #63 ) ;
#48 = SHAPE_DEFINITION_REPRESENTATION ( #110, #7 ) ;
#49 = APPROVAL_STATUS ( 'not_yet_approved' ) ;
#50 = ADVANCED_FACE ( 'NONE', ( #2 ), #75, .T. ) ;
#51 = EDGE_LOOP ( 'NONE', ( #242 ) ) ;
#52 = PERSON_AND_ORGANIZATION ( #192, #223 ) ;
#53 = CC_DESIGN_APPROVAL ( #88, ( #9 ) ) ;
#54 = ORIENTED_EDGE ( 'NONE', *, *, #20, .F. ) ;
#55 = APPROVAL_ROLE ( '' ) ;
#56 = EDGE_CURVE ( 'NONE', #83, #83, #69, .T. ) ;
#57 = DIRECTION ( 'NONE',  ( -3.153425691349006731E-31, -1.000000000000000000, -9.031770143711729009E-17 ) ) ;
#58 =( GEOMETRIC_REPRESENTATION_CONTEXT ( 3 ) GLOBAL_UNCERTAINTY_ASSIGNED_CONTEXT ( ( #77 ) ) GLOBAL_UNIT_ASSIGNED_CONTEXT ( ( #194, #85, #71 ) ) REPRESENTATION_CONTEXT ( 'NONE', 'WORKASPACE' ) );
#59 = MANIFOLD_SOLID_BREP ( 'Corps-Déplacer/Copier1[2]', #230 ) ;
#60 = CONICAL_SURFACE ( 'NONE', #197, 1.999999999999995337, 0.7853981633974516097 ) ;
#61 = DIRECTION ( 'NONE',  ( -1.725013371097766516E-30, 1.000000000000000000, -4.940634658151523108E-16 ) ) ;
#62 = EDGE_CURVE ( 'NONE', #98, #98, #6, .T. ) ;
#63 = DIRECTION ( 'NONE',  ( -1.725013371097766516E-30, 1.000000000000000000, -4.940634658151523108E-16 ) ) ;
#64 = CYLINDRICAL_SURFACE ( 'NONE', #10, 1.999999999999993561 ) ;
#65 = FACE_OUTER_BOUND ( 'NONE', #129, .T. ) ;
#66 = VERTEX_POINT ( 'NONE', #170 ) ;
#67 = APPROVAL_DATE_TIME ( #158, #225 ) ;
#68 = PERSON_AND_ORGANIZATION ( #192, #223 ) ;
#69 = CIRCLE ( 'NONE', #211, 2.423999999999998600 ) ;
#70 = CC_DESIGN_PERSON_AND_ORGANIZATION_ASSIGNMENT ( #200, #147, ( #193 ) ) ;
#71 =( NAMED_UNIT ( * ) SI_UNIT ( $, .STERADIAN. ) SOLID_ANGLE_UNIT ( ) );
#72 = CALENDAR_DATE ( 2021, 26, 11 ) ;
#73 = PERSON_AND_ORGANIZATION_ROLE ( 'creator' ) ;
#74 = AXIS2_PLACEMENT_3D ( 'NONE', #148, #134, #209 ) ;
#75 = PLANE ( 'NONE',  #74 ) ;
#76 = CIRCLE ( 'NONE', #231, 2.423999999999999488 ) ;
#77 = UNCERTAINTY_MEASURE_WITH_UNIT (LENGTH_MEASURE( 1.000000000000000082E-05 ), #194, 'distance_accuracy_value', 'NONE');
#78 = ORIENTED_EDGE ( 'NONE', *, *, #166, .F. ) ;
#79 = PLANE ( 'NONE',  #144 ) ;
#80 = CIRCLE ( 'NONE', #41, 1.999999999999995337 ) ;
#81 = VERTEX_POINT ( 'NONE', #153 ) ;
#82 = CC_DESIGN_PERSON_AND_ORGANIZATION_ASSIGNMENT ( #16, #73, ( #193 ) ) ;
#83 = VERTEX_POINT ( 'NONE', #154 ) ;
#84 = CYLINDRICAL_SURFACE ( 'NONE', #92, 2.423999999999995048 ) ;
#85 =( NAMED_UNIT ( * ) PLANE_ANGLE_UNIT ( ) SI_UNIT ( $, .RADIAN. ) );
#86 = ORIENTED_EDGE ( 'NONE', *, *, #240, .F. ) ;
#87 = DIRECTION ( 'NONE',  ( 1.725013371097766516E-30, -1.000000000000000000, 4.940634658151523108E-16 ) ) ;
#88 = APPROVAL ( #160, 'UNSPECIFIED' ) ;
#89 = CIRCLE ( 'NONE', #107, 2.193059892324148663 ) ;
#90 = APPROVAL_ROLE ( '' ) ;
#91 = FACE_OUTER_BOUND ( 'NONE', #132, .T. ) ;
#92 = AXIS2_PLACEMENT_3D ( 'NONE', #196, #119, #101 ) ;
#93 = AXIS2_PLACEMENT_3D ( 'NONE', #167, #120, #128 ) ;
#94 = DESIGN_CONTEXT ( 'detailed design', #226, 'design' ) ;
#95 = ADVANCED_FACE ( 'NONE', ( #43 ), #142, .T. ) ;
#96 = CC_DESIGN_APPROVAL ( #225, ( #136 ) ) ;
#97 = EDGE_LOOP ( 'NONE', ( #157 ) ) ;
#98 = VERTEX_POINT ( 'NONE', #121 ) ;
#99 = EDGE_CURVE ( 'NONE', #42, #42, #112, .T. ) ;
#100 = AXIS2_PLACEMENT_3D ( 'NONE', #156, #155, #31 ) ;
#101 = DIRECTION ( 'NONE',  ( -1.725013371097766516E-30, 1.000000000000000000, -4.940634658151524094E-16 ) ) ;
#102 = DIRECTION ( 'NONE',  ( -3.491481338843133355E-15, 9.031770143711729009E-17, -1.000000000000000000 ) ) ;
#103 = CARTESIAN_POINT ( 'NONE',  ( 4.628820521679252519E-14, 6.550031025899465783E-15, 13.25746888629502074 ) ) ;
#104 = DATE_AND_TIME ( #143, #201 ) ;
#105 = APPROVAL_STATUS ( 'not_yet_approved' ) ;
#106 = APPLICATION_PROTOCOL_DEFINITION ( 'international standard', 'config_control_design', 1994, #182 ) ;
#107 = AXIS2_PLACEMENT_3D ( 'NONE', #217, #38, #61 ) ;
#108 = COORDINATED_UNIVERSAL_TIME_OFFSET ( 1, 0, .AHEAD. ) ;
#109 = EDGE_LOOP ( 'NONE', ( #4 ) ) ;
#110 = PRODUCT_DEFINITION_SHAPE ( 'NONE', 'NONE',  #9 ) ;
#111 = CARTESIAN_POINT ( 'NONE',  ( 2.779219145719134403E-13, -7.189289034394536528E-15, 79.60000000000000853 ) ) ;
#112 = CIRCLE ( 'NONE', #178, 1.999999999999991784 ) ;
#113 = DIRECTION ( 'NONE',  ( -3.491481338843133355E-15, -4.940634658151523108E-16, -1.000000000000000000 ) ) ;
#114 = DIRECTION ( 'NONE',  ( -3.491481338843133355E-15, 9.031770143711729009E-17, -1.000000000000000000 ) ) ;
#115 = APPROVAL ( #49, 'UNSPECIFIED' ) ;
#116 = CARTESIAN_POINT ( 'NONE',  ( 4.885231259955590439E-14, -1.263712492114123682E-15, 13.99185842870425134 ) ) ;
#117 = FACE_OUTER_BOUND ( 'NONE', #29, .T. ) ;
#118 = CC_DESIGN_APPROVAL ( #115, ( #193 ) ) ;
#119 = DIRECTION ( 'NONE',  ( -3.491481338843133355E-15, -4.940634658151523108E-16, -1.000000000000000000 ) ) ;
#120 = DIRECTION ( 'NONE',  ( 3.491481338843133355E-15, 4.940634658151523108E-16, 1.000000000000000000 ) ) ;
#121 = CARTESIAN_POINT ( 'NONE',  ( 2.793185071074506684E-13, 1.599999999999987876, 80.00000000000000000 ) ) ;
#122 = DIRECTION ( 'NONE',  ( -3.491481338843133355E-15, -4.940634658151523108E-16, -1.000000000000000000 ) ) ;
#123 = CIRCLE ( 'NONE', #27, 2.423999999999991495 ) ;
#124 = DATE_AND_TIME ( #72, #235 ) ;
#125 = COORDINATED_UNIVERSAL_TIME_OFFSET ( 1, 0, .AHEAD. ) ;
#126 = CC_DESIGN_PERSON_AND_ORGANIZATION_ASSIGNMENT ( #181, #224, ( #18 ) ) ;
#127 = MECHANICAL_CONTEXT ( 'NONE', #182, 'mechanical' ) ;
#128 = DIRECTION ( 'NONE',  ( 1.725013371097766516E-30, -1.000000000000000000, 4.940634658151523108E-16 ) ) ;
#129 = EDGE_LOOP ( 'NONE', ( #135 ) ) ;
#130 = PERSON_AND_ORGANIZATION ( #192, #223 ) ;
#131 = DIRECTION ( 'NONE',  ( 3.491481338843133355E-15, -9.031770143711729009E-17, 1.000000000000000000 ) ) ;
#132 = EDGE_LOOP ( 'NONE', ( #228 ) ) ;
#133 = ADVANCED_FACE ( 'NONE', ( #11, #65 ), #64, .T. ) ;
#134 = DIRECTION ( 'NONE',  ( -3.491481338843133355E-15, 9.031770143711729009E-17, -1.000000000000000000 ) ) ;
#135 = ORIENTED_EDGE ( 'NONE', *, *, #99, .F. ) ;
#136 = SECURITY_CLASSIFICATION ( '', '', #203 ) ;
#137 = ORIENTED_EDGE ( 'NONE', *, *, #20, .T. ) ;
#138 = DIRECTION ( 'NONE',  ( -3.491481338843133355E-15, 9.031770143711729009E-17, -1.000000000000000000 ) ) ;
#139 = FACE_BOUND ( 'NONE', #1, .T. ) ;
#140 = ADVANCED_FACE ( 'NONE', ( #139, #26 ), #208, .T. ) ;
#141 = PLANE ( 'NONE',  #237 ) ;
#142 = PLANE ( 'NONE',  #47 ) ;
#143 = CALENDAR_DATE ( 2021, 26, 11 ) ;
#144 = AXIS2_PLACEMENT_3D ( 'NONE', #151, #131, #57 ) ;
#145 = DATE_TIME_ROLE ( 'classification_date' ) ;
#146 = DIRECTION ( 'NONE',  ( 0.0000000000000000000, 0.0000000000000000000, 1.000000000000000000 ) ) ;
#147 = PERSON_AND_ORGANIZATION_ROLE ( 'design_supplier' ) ;
#148 = CARTESIAN_POINT ( 'NONE',  ( 4.628820521679252519E-14, 2.423999999999998156, 13.25746888629502074 ) ) ;
#149 = APPROVAL_PERSON_ORGANIZATION ( #33, #225, #220 ) ;
#150 = CC_DESIGN_DATE_AND_TIME_ASSIGNMENT ( #179, #202, ( #9 ) ) ;
#151 = CARTESIAN_POINT ( 'NONE',  ( 2.793185071074506684E-13, -7.225416114969383207E-15, 80.00000000000000000 ) ) ;
#152 = CONICAL_SURFACE ( 'NONE', #93, 2.193059892324148663, 0.5235987755982979275 ) ;
#153 = CARTESIAN_POINT ( 'NONE',  ( 4.628820521679253781E-14, 2.423999999999998156, 13.25746888629502429 ) ) ;
#154 = CARTESIAN_POINT ( 'NONE',  ( 1.396592535537252948E-15, 2.423999999999998600, 0.3999999999999999112 ) ) ;
#155 = DIRECTION ( 'NONE',  ( -3.491481338843133355E-15, 9.031770143711729009E-17, -1.000000000000000000 ) ) ;
#156 = CARTESIAN_POINT ( 'NONE',  ( 4.628820521679253781E-14, -1.197384116684265751E-15, 13.25746888629502429 ) ) ;
#157 = ORIENTED_EDGE ( 'NONE', *, *, #240, .T. ) ;
#158 = DATE_AND_TIME ( #161, #215 ) ;
#159 = CC_DESIGN_PERSON_AND_ORGANIZATION_ASSIGNMENT ( #52, #238, ( #9 ) ) ;
#160 = APPROVAL_STATUS ( 'not_yet_approved' ) ;
#161 = CALENDAR_DATE ( 2021, 26, 11 ) ;
#162 = PRODUCT_RELATED_PRODUCT_CATEGORY ( 'detail', '', ( #18 ) ) ;
#163 = ORIENTED_EDGE ( 'NONE', *, *, #62, .F. ) ;
#164 = AXIS2_PLACEMENT_3D ( 'NONE', #15, #146, #218 ) ;
#165 = DIRECTION ( 'NONE',  ( 0.0000000000000000000, 1.000000000000000000, 0.0000000000000000000 ) ) ;
#166 = EDGE_CURVE ( 'NONE', #66, #66, #89, .T. ) ;
#167 = CARTESIAN_POINT ( 'NONE',  ( 3.783057637877384691E-30, 5.353230868384023824E-31, 1.083510771141873585E-15 ) ) ;
#168 = ORIENTED_EDGE ( 'NONE', *, *, #99, .T. ) ;
#169 = EDGE_LOOP ( 'NONE', ( #137 ) ) ;
#170 = CARTESIAN_POINT ( 'NONE',  ( 0.0000000000000000000, 2.193059892324148663, 0.0000000000000000000 ) ) ;
#171 = EDGE_CURVE ( 'NONE', #216, #216, #123, .T. ) ;
#172 = DIRECTION ( 'NONE',  ( 0.0000000000000000000, 1.000000000000000000, 0.0000000000000000000 ) ) ;
#173 = DIRECTION ( 'NONE',  ( -3.491481338843133355E-15, 9.031770143711729009E-17, -1.000000000000000000 ) ) ;
#174 = DIRECTION ( 'NONE',  ( 0.0000000000000000000, 1.000000000000000000, 0.0000000000000000000 ) ) ;
#175 = APPLICATION_PROTOCOL_DEFINITION ( 'international standard', 'config_control_design', 1994, #226 ) ;
#176 = EDGE_LOOP ( 'NONE', ( #78 ) ) ;
#177 = DATE_AND_TIME ( #12, #14 ) ;
#178 = AXIS2_PLACEMENT_3D ( 'NONE', #116, #173, #40 ) ;
#179 = DATE_AND_TIME ( #239, #243 ) ;
#180 = APPROVAL_DATE_TIME ( #124, #115 ) ;
#181 = PERSON_AND_ORGANIZATION ( #192, #223 ) ;
#182 = APPLICATION_CONTEXT ( 'configuration controlled 3d designs of mechanical parts and assemblies' ) ;
#183 = CARTESIAN_POINT ( 'NONE',  ( 2.779219145719134403E-13, -7.189289034394536528E-15, 79.60000000000000853 ) ) ;
#184 = CC_DESIGN_PERSON_AND_ORGANIZATION_ASSIGNMENT ( #222, #198, ( #136 ) ) ;
#185 = DIRECTION ( 'NONE',  ( -1.747956220153432930E-30, 1.000000000000000000, -4.920059363589338258E-16 ) ) ;
#186 = EDGE_LOOP ( 'NONE', ( #21 ) ) ;
#187 = DIRECTION ( 'NONE',  ( 0.0000000000000000000, 1.000000000000000000, 0.0000000000000000000 ) ) ;
#188 = EDGE_LOOP ( 'NONE', ( #163 ) ) ;
#189 = FACE_OUTER_BOUND ( 'NONE', #188, .T. ) ;
#190 = CARTESIAN_POINT ( 'NONE',  ( 4.628820521679254412E-14, 6.550031025899468149E-15, 13.25746888629502607 ) ) ;
#191 = DIRECTION ( 'NONE',  ( -3.491481338843133355E-15, 9.031770143711729009E-17, -1.000000000000000000 ) ) ;
#192 = PERSON ( 'UNSPECIFIED', 'UNSPECIFIED', 'UNSPECIFIED', ('UNSPECIFIED'), ('UNSPECIFIED'), ('UNSPECIFIED') ) ;
#193 = PRODUCT_DEFINITION_FORMATION_WITH_SPECIFIED_SOURCE ( 'ANY', '', #18, .NOT_KNOWN. ) ;
#194 =( LENGTH_UNIT ( ) NAMED_UNIT ( * ) SI_UNIT ( .MILLI., .METRE. ) );
#195 = DIRECTION ( 'NONE',  ( 3.491481338843133355E-15, 4.940634658151523108E-16, 1.000000000000000000 ) ) ;
#196 = CARTESIAN_POINT ( 'NONE',  ( 0.0000000000000000000, 0.0000000000000000000, 0.0000000000000000000 ) ) ;
#197 = AXIS2_PLACEMENT_3D ( 'NONE', #111, #19, #165 ) ;
#198 = PERSON_AND_ORGANIZATION_ROLE ( 'classification_officer' ) ;
#199 = COORDINATED_UNIVERSAL_TIME_OFFSET ( 1, 0, .AHEAD. ) ;
#200 = PERSON_AND_ORGANIZATION ( #192, #223 ) ;
#201 = LOCAL_TIME ( 11, 3, 17.00000000000000000, #108 ) ;
#202 = DATE_TIME_ROLE ( 'creation_date' ) ;
#203 = SECURITY_CLASSIFICATION_LEVEL ( 'unclassified' ) ;
#204 = EDGE_LOOP ( 'NONE', ( #210 ) ) ;
#205 = ADVANCED_FACE ( 'NONE', ( #117, #236 ), #84, .T. ) ;
#206 = FACE_BOUND ( 'NONE', #51, .T. ) ;
#207 = ORIENTED_EDGE ( 'NONE', *, *, #171, .T. ) ;
#208 = CONICAL_SURFACE ( 'NONE', #100, 2.423999999999999488, 0.5235987755982930425 ) ;
#209 = DIRECTION ( 'NONE',  ( 3.153425691349006731E-31, 1.000000000000000000, 9.031770143711729009E-17 ) ) ;
#210 = ORIENTED_EDGE ( 'NONE', *, *, #171, .F. ) ;
#211 = AXIS2_PLACEMENT_3D ( 'NONE', #36, #113, #185 ) ;
#212 = VERTEX_POINT ( 'NONE', #25 ) ;
#213 = ADVANCED_FACE ( 'NONE', ( #28 ), #141, .T. ) ;
#214 = CARTESIAN_POINT ( 'NONE',  ( 2.793185071074506684E-13, -7.225416114969383207E-15, 80.00000000000000000 ) ) ;
#215 = LOCAL_TIME ( 11, 3, 17.00000000000000000, #199 ) ;
#216 = VERTEX_POINT ( 'NONE', #234 ) ;
#217 = CARTESIAN_POINT ( 'NONE',  ( 3.783057637877384691E-30, 5.353230868384023824E-31, 1.083510771141873585E-15 ) ) ;
#218 = DIRECTION ( 'NONE',  ( 1.000000000000000000, 0.0000000000000000000, 0.0000000000000000000 ) ) ;
#219 = AXIS2_PLACEMENT_3D ( 'NONE', #214, #102, #174 ) ;
#220 = APPROVAL_ROLE ( '' ) ;
#221 = MANIFOLD_SOLID_BREP ( 'Corps-Déplacer/Copier1[1]', #35 ) ;
#222 = PERSON_AND_ORGANIZATION ( #192, #223 ) ;
#223 = ORGANIZATION ( 'UNSPECIFIED', 'UNSPECIFIED', '' ) ;
#224 = PERSON_AND_ORGANIZATION_ROLE ( 'design_owner' ) ;
#225 = APPROVAL ( #105, 'UNSPECIFIED' ) ;
#226 = APPLICATION_CONTEXT ( 'configuration controlled 3d designs of mechanical parts and assemblies' ) ;
#227 = APPROVAL_PERSON_ORGANIZATION ( #130, #115, #90 ) ;
#228 = ORIENTED_EDGE ( 'NONE', *, *, #56, .T. ) ;
#229 = CARTESIAN_POINT ( 'NONE',  ( 4.628820521679253781E-14, -1.197384116684265751E-15, 13.25746888629502429 ) ) ;
#230 = CLOSED_SHELL ( 'NONE', ( #213, #205, #13, #95 ) ) ;
#231 = AXIS2_PLACEMENT_3D ( 'NONE', #229, #138, #172 ) ;
#232 = DIRECTION ( 'NONE',  ( 3.153425691349006731E-31, 1.000000000000000000, 9.031770143711729009E-17 ) ) ;
#233 = CARTESIAN_POINT ( 'NONE',  ( 4.885231259955590439E-14, 1.999999999999990452, 13.99185842870425134 ) ) ;
#234 = CARTESIAN_POINT ( 'NONE',  ( 4.628820521679253781E-14, 2.423999999999998156, 13.25746888629502429 ) ) ;
#235 = LOCAL_TIME ( 11, 3, 17.00000000000000000, #32 ) ;
#236 = FACE_OUTER_BOUND ( 'NONE', #109, .T. ) ;
#237 = AXIS2_PLACEMENT_3D ( 'NONE', #103, #195, #87 ) ;
#238 = PERSON_AND_ORGANIZATION_ROLE ( 'creator' ) ;
#239 = CALENDAR_DATE ( 2021, 26, 11 ) ;
#240 = EDGE_CURVE ( 'NONE', #81, #81, #76, .T. ) ;
#241 = FACE_BOUND ( 'NONE', #176, .T. ) ;
#242 = ORIENTED_EDGE ( 'NONE', *, *, #62, .T. ) ;
#243 = LOCAL_TIME ( 11, 3, 17.00000000000000000, #125 ) ;
ENDSEC;
END-ISO-10303-21;
