ISO-10303-21;
HEADER;
FILE_DESCRIPTION (( 'STEP AP203' ),
    '1' );
FILE_NAME ('321387.step',
    '2021-11-26T10:03:17',
    ( '' ),
    ( '' ),
    'SwSTEP 2.0',
    'SolidWorks 2019',
    '' );
FILE_SCHEMA (( 'CONFIG_CONTROL_DESIGN' ));
ENDSEC;

DATA;
#1 = PLANE ( 'NONE',  #170 ) ;
#2 = CLOSED_SHELL ( 'NONE', ( #33, #21, #148, #232 ) ) ;
#3 = ADVANCED_BREP_SHAPE_REPRESENTATION ( '321387', ( #216, #52, #164 ), #119 ) ;
#4 = APPROVAL ( #16, 'UNSPECIFIED' ) ;
#5 = FACE_OUTER_BOUND ( 'NONE', #181, .T. ) ;
#6 = CONICAL_SURFACE ( 'NONE', #120, 1.999999999999995337, 0.7853981633974516097 ) ;
#7 = LOCAL_TIME ( 11, 3, 17.00000000000000000, #204 ) ;
#8 = ORIENTED_EDGE ( 'NONE', *, *, #150, .T. ) ;
#9 = EDGE_LOOP ( 'NONE', ( #162 ) ) ;
#10 = ORIENTED_EDGE ( 'NONE', *, *, #128, .T. ) ;
#11 = VERTEX_POINT ( 'NONE', #166 ) ;
#12 = CARTESIAN_POINT ( 'NONE',  ( 1.396592535537257089E-15, 1.974324177356147013E-16, 0.4000000000000010769 ) ) ;
#13 = PERSON ( 'UNSPECIFIED', 'UNSPECIFIED', 'UNSPECIFIED', ('UNSPECIFIED'), ('UNSPECIFIED'), ('UNSPECIFIED') ) ;
#14 = DIRECTION ( 'NONE',  ( -3.491481338843133355E-15, 9.031770143711729009E-17, -1.000000000000000000 ) ) ;
#15 = CARTESIAN_POINT ( 'NONE',  ( 4.885231259955590439E-14, -1.263712492114123682E-15, 13.99185842870425134 ) ) ;
#16 = APPROVAL_STATUS ( 'not_yet_approved' ) ;
#17 = CIRCLE ( 'NONE', #221, 1.599999999999994982 ) ;
#18 = DIRECTION ( 'NONE',  ( -3.153425691349006731E-31, -1.000000000000000000, -9.031770143711729009E-17 ) ) ;
#19 = APPROVAL_DATE_TIME ( #101, #90 ) ;
#20 = DIRECTION ( 'NONE',  ( 3.491481338843133355E-15, 4.935810443390353727E-16, 1.000000000000000000 ) ) ;
#21 = ADVANCED_FACE ( 'NONE', ( #5, #85 ), #136, .T. ) ;
#22 = ORGANIZATION ( 'UNSPECIFIED', 'UNSPECIFIED', '' ) ;
#23 = EDGE_LOOP ( 'NONE', ( #199 ) ) ;
#24 = ADVANCED_FACE ( 'NONE', ( #95, #156 ), #6, .T. ) ;
#25 = ORIENTED_EDGE ( 'NONE', *, *, #64, .T. ) ;
#26 = ADVANCED_FACE ( 'NONE', ( #239 ), #1, .T. ) ;
#27 = AXIS2_PLACEMENT_3D ( 'NONE', #132, #191, #109 ) ;
#28 = FACE_OUTER_BOUND ( 'NONE', #44, .T. ) ;
#29 = VERTEX_POINT ( 'NONE', #143 ) ;
#30 = PLANE ( 'NONE',  #210 ) ;
#31 = PERSON_AND_ORGANIZATION ( #13, #22 ) ;
#32 = CARTESIAN_POINT ( 'NONE',  ( 2.793185071074506684E-13, -7.225416114969383207E-15, 80.00000000000000000 ) ) ;
#33 = ADVANCED_FACE ( 'NONE', ( #75 ), #177, .T. ) ;
#34 = APPLICATION_PROTOCOL_DEFINITION ( 'international standard', 'config_control_design', 1994, #58 ) ;
#35 = DIRECTION ( 'NONE',  ( -2.547737007870680014E-30, 1.000000000000000000, -7.171242149552760592E-16 ) ) ;
#36 = DIRECTION ( 'NONE',  ( 0.0000000000000000000, 0.0000000000000000000, 1.000000000000000000 ) ) ;
#37 = APPROVAL_PERSON_ORGANIZATION ( #118, #155, #147 ) ;
#38 = FACE_BOUND ( 'NONE', #160, .T. ) ;
#39 = DIRECTION ( 'NONE',  ( -1.723329005516447078E-30, 1.000000000000000000, -4.935810443390353727E-16 ) ) ;
#40 = DATE_TIME_ROLE ( 'creation_date' ) ;
#41 = CONICAL_SURFACE ( 'NONE', #233, 2.188059892324148326, 0.5235987755982979275 ) ;
#42 = APPROVAL_PERSON_ORGANIZATION ( #62, #90, #80 ) ;
#43 = EDGE_CURVE ( 'NONE', #138, #138, #141, .T. ) ;
#44 = EDGE_LOOP ( 'NONE', ( #10 ) ) ;
#45 =( NAMED_UNIT ( * ) SI_UNIT ( $, .STERADIAN. ) SOLID_ANGLE_UNIT ( ) );
#46 = EDGE_LOOP ( 'NONE', ( #71 ) ) ;
#47 = CC_DESIGN_PERSON_AND_ORGANIZATION_ASSIGNMENT ( #31, #229, ( #104 ) ) ;
#48 = ORIENTED_EDGE ( 'NONE', *, *, #158, .T. ) ;
#49 = CARTESIAN_POINT ( 'NONE',  ( 4.631844233215531285E-14, 2.418999999999998263, 13.26612914033287005 ) ) ;
#50 = COORDINATED_UNIVERSAL_TIME_OFFSET ( 1, 0, .AHEAD. ) ;
#51 = CARTESIAN_POINT ( 'NONE',  ( 0.0000000000000000000, 0.0000000000000000000, 0.0000000000000000000 ) ) ;
#52 = MANIFOLD_SOLID_BREP ( 'Corps-Déplacer/Copier1[2]', #2 ) ;
#53 = PERSON_AND_ORGANIZATION ( #13, #22 ) ;
#54 = DIRECTION ( 'NONE',  ( 0.0000000000000000000, 1.000000000000000000, 0.0000000000000000000 ) ) ;
#55 = PERSON_AND_ORGANIZATION ( #13, #22 ) ;
#56 = CC_DESIGN_DATE_AND_TIME_ASSIGNMENT ( #73, #40, ( #192 ) ) ;
#57 = DIRECTION ( 'NONE',  ( -3.491481338843133355E-15, -4.935810443390353727E-16, -1.000000000000000000 ) ) ;
#58 = APPLICATION_CONTEXT ( 'configuration controlled 3d designs of mechanical parts and assemblies' ) ;
#59 = DATE_TIME_ROLE ( 'classification_date' ) ;
#60 = CC_DESIGN_APPROVAL ( #4, ( #192 ) ) ;
#61 = CARTESIAN_POINT ( 'NONE',  ( 1.396592535537252948E-15, 2.418999999999997819, 0.3999999999999999112 ) ) ;
#62 = PERSON_AND_ORGANIZATION ( #13, #22 ) ;
#63 = CIRCLE ( 'NONE', #27, 2.418999999999999595 ) ;
#64 = EDGE_CURVE ( 'NONE', #117, #117, #186, .T. ) ;
#65 = CARTESIAN_POINT ( 'NONE',  ( 2.779219145719134403E-13, 1.999999999999988010, 79.60000000000000853 ) ) ;
#66 = EDGE_LOOP ( 'NONE', ( #145 ) ) ;
#67 = ADVANCED_FACE ( 'NONE', ( #28 ), #30, .T. ) ;
#68 =( NAMED_UNIT ( * ) PLANE_ANGLE_UNIT ( ) SI_UNIT ( $, .RADIAN. ) );
#69 = AXIS2_PLACEMENT_3D ( 'NONE', #111, #149, #193 ) ;
#70 = SECURITY_CLASSIFICATION ( '', '', #139 ) ;
#71 = ORIENTED_EDGE ( 'NONE', *, *, #128, .F. ) ;
#72 = DIRECTION ( 'NONE',  ( 0.0000000000000000000, 1.000000000000000000, 0.0000000000000000000 ) ) ;
#73 = DATE_AND_TIME ( #207, #214 ) ;
#74 = AXIS2_PLACEMENT_3D ( 'NONE', #51, #97, #169 ) ;
#75 = FACE_OUTER_BOUND ( 'NONE', #218, .T. ) ;
#76 = CALENDAR_DATE ( 2021, 26, 11 ) ;
#77 = CARTESIAN_POINT ( 'NONE',  ( 2.793185071074506684E-13, -7.225416114969383207E-15, 80.00000000000000000 ) ) ;
#78 = PERSON_AND_ORGANIZATION_ROLE ( 'design_supplier' ) ;
#79 = DIRECTION ( 'NONE',  ( 0.0000000000000000000, 1.000000000000000000, 0.0000000000000000000 ) ) ;
#80 = APPROVAL_ROLE ( '' ) ;
#81 = DIRECTION ( 'NONE',  ( 1.723329005516446377E-30, -1.000000000000000000, 4.935810443390353727E-16 ) ) ;
#82 = PERSON_AND_ORGANIZATION ( #13, #22 ) ;
#83 = APPROVAL_PERSON_ORGANIZATION ( #82, #4, #154 ) ;
#84 = CC_DESIGN_PERSON_AND_ORGANIZATION_ASSIGNMENT ( #168, #196, ( #70 ) ) ;
#85 = FACE_OUTER_BOUND ( 'NONE', #144, .T. ) ;
#86 = AXIS2_PLACEMENT_3D ( 'NONE', #146, #14, #153 ) ;
#87 = CC_DESIGN_DATE_AND_TIME_ASSIGNMENT ( #116, #59, ( #70 ) ) ;
#88 = EDGE_LOOP ( 'NONE', ( #25 ) ) ;
#89 = VERTEX_POINT ( 'NONE', #161 ) ;
#90 = APPROVAL ( #211, 'UNSPECIFIED' ) ;
#91 = CONICAL_SURFACE ( 'NONE', #86, 2.418999999999999595, 0.5235987755982927094 ) ;
#92 = LOCAL_TIME ( 11, 3, 17.00000000000000000, #96 ) ;
#93 = VERTEX_POINT ( 'NONE', #124 ) ;
#94 = APPLICATION_CONTEXT ( 'configuration controlled 3d designs of mechanical parts and assemblies' ) ;
#95 = FACE_BOUND ( 'NONE', #23, .T. ) ;
#96 = COORDINATED_UNIVERSAL_TIME_OFFSET ( 1, 0, .AHEAD. ) ;
#97 = DIRECTION ( 'NONE',  ( -3.491481338843133355E-15, 9.031770143711729009E-17, -1.000000000000000000 ) ) ;
#98 = CLOSED_SHELL ( 'NONE', ( #26, #24, #219, #200, #67 ) ) ;
#99 = CARTESIAN_POINT ( 'NONE',  ( 0.0000000000000000000, 0.0000000000000000000, 0.0000000000000000000 ) ) ;
#100 = DIRECTION ( 'NONE',  ( -3.491481338843133355E-15, -4.935810443390353727E-16, -1.000000000000000000 ) ) ;
#101 = DATE_AND_TIME ( #209, #92 ) ;
#102 = DIRECTION ( 'NONE',  ( -1.723329005516446728E-30, 1.000000000000000000, -4.935810443390352741E-16 ) ) ;
#103 = PRODUCT_DEFINITION_FORMATION_WITH_SPECIFIED_SOURCE ( 'ANY', '', #104, .NOT_KNOWN. ) ;
#104 = PRODUCT ( '321387', '321387', '', ( #224 ) ) ;
#105 = EDGE_LOOP ( 'NONE', ( #234 ) ) ;
#106 = EDGE_LOOP ( 'NONE', ( #217 ) ) ;
#107 = CC_DESIGN_SECURITY_CLASSIFICATION ( #70, ( #103 ) ) ;
#108 = DIRECTION ( 'NONE',  ( 1.723329005516447078E-30, -1.000000000000000000, 4.935810443390353727E-16 ) ) ;
#109 = DIRECTION ( 'NONE',  ( 0.0000000000000000000, 1.000000000000000000, 0.0000000000000000000 ) ) ;
#110 = DIRECTION ( 'NONE',  ( 1.000000000000000000, 0.0000000000000000000, 0.0000000000000000000 ) ) ;
#111 = CARTESIAN_POINT ( 'NONE',  ( 2.779219145719134403E-13, -7.189289034394536528E-15, 79.60000000000000853 ) ) ;
#112 = APPLICATION_PROTOCOL_DEFINITION ( 'international standard', 'config_control_design', 1994, #94 ) ;
#113 = PLANE ( 'NONE',  #125 ) ;
#114 = APPROVAL_DATE_TIME ( #173, #4 ) ;
#115 = FACE_OUTER_BOUND ( 'NONE', #46, .T. ) ;
#116 = DATE_AND_TIME ( #137, #178 ) ;
#117 = VERTEX_POINT ( 'NONE', #65 ) ;
#118 = PERSON_AND_ORGANIZATION ( #13, #22 ) ;
#119 =( GEOMETRIC_REPRESENTATION_CONTEXT ( 3 ) GLOBAL_UNCERTAINTY_ASSIGNED_CONTEXT ( ( #206 ) ) GLOBAL_UNIT_ASSIGNED_CONTEXT ( ( #183, #68, #45 ) ) REPRESENTATION_CONTEXT ( 'NONE', 'WORKASPACE' ) );
#120 = AXIS2_PLACEMENT_3D ( 'NONE', #129, #194, #79 ) ;
#121 = LOCAL_TIME ( 11, 3, 17.00000000000000000, #50 ) ;
#122 = ORIENTED_EDGE ( 'NONE', *, *, #150, .F. ) ;
#123 = EDGE_LOOP ( 'NONE', ( #126 ) ) ;
#124 = CARTESIAN_POINT ( 'NONE',  ( 4.631844233215530654E-14, 2.418999999999998263, 13.26612914033286827 ) ) ;
#125 = AXIS2_PLACEMENT_3D ( 'NONE', #195, #212, #39 ) ;
#126 = ORIENTED_EDGE ( 'NONE', *, *, #64, .F. ) ;
#127 = CC_DESIGN_PERSON_AND_ORGANIZATION_ASSIGNMENT ( #53, #78, ( #103 ) ) ;
#128 = EDGE_CURVE ( 'NONE', #93, #93, #63, .T. ) ;
#129 = CARTESIAN_POINT ( 'NONE',  ( 2.779219145719134403E-13, -7.189289034394536528E-15, 79.60000000000000853 ) ) ;
#130 = DIRECTION ( 'NONE',  ( -3.491481338843133355E-15, -4.935810443390353727E-16, -1.000000000000000000 ) ) ;
#131 = PERSON_AND_ORGANIZATION_ROLE ( 'creator' ) ;
#132 = CARTESIAN_POINT ( 'NONE',  ( 4.631844233215530654E-14, -1.198166290922825441E-15, 13.26612914033286827 ) ) ;
#133 = DIRECTION ( 'NONE',  ( -1.751569192911088218E-30, 1.000000000000000000, -4.930228977817510828E-16 ) ) ;
#134 = COORDINATED_UNIVERSAL_TIME_OFFSET ( 1, 0, .AHEAD. ) ;
#135 = CIRCLE ( 'NONE', #163, 2.418999999999992045 ) ;
#136 = CYLINDRICAL_SURFACE ( 'NONE', #227, 2.418999999999995154 ) ;
#137 = CALENDAR_DATE ( 2021, 26, 11 ) ;
#138 = VERTEX_POINT ( 'NONE', #61 ) ;
#139 = SECURITY_CLASSIFICATION_LEVEL ( 'unclassified' ) ;
#140 = PRODUCT_DEFINITION_SHAPE ( 'NONE', 'NONE',  #192 ) ;
#141 = CIRCLE ( 'NONE', #179, 2.418999999999997819 ) ;
#142 = CC_DESIGN_APPROVAL ( #90, ( #70 ) ) ;
#143 = CARTESIAN_POINT ( 'NONE',  ( 6.842277657836020854E-46, 2.188059892324148326, 0.0000000000000000000 ) ) ;
#144 = EDGE_LOOP ( 'NONE', ( #184 ) ) ;
#145 = ORIENTED_EDGE ( 'NONE', *, *, #198, .F. ) ;
#146 = CARTESIAN_POINT ( 'NONE',  ( 4.631844233215530654E-14, -1.198166290922825441E-15, 13.26612914033286827 ) ) ;
#147 = APPROVAL_ROLE ( '' ) ;
#148 = ADVANCED_FACE ( 'NONE', ( #174, #203 ), #41, .T. ) ;
#149 = DIRECTION ( 'NONE',  ( -3.491481338843133355E-15, 9.031770143711729009E-17, -1.000000000000000000 ) ) ;
#150 = EDGE_CURVE ( 'NONE', #11, #11, #135, .T. ) ;
#151 = CARTESIAN_POINT ( 'NONE',  ( 3.770747078249398802E-30, 5.330600682624252249E-31, 1.079984886729710415E-15 ) ) ;
#152 = APPROVAL_DATE_TIME ( #190, #155 ) ;
#153 = DIRECTION ( 'NONE',  ( 0.0000000000000000000, 1.000000000000000000, 0.0000000000000000000 ) ) ;
#154 = APPROVAL_ROLE ( '' ) ;
#155 = APPROVAL ( #243, 'UNSPECIFIED' ) ;
#156 = FACE_OUTER_BOUND ( 'NONE', #123, .T. ) ;
#157 = PERSON_AND_ORGANIZATION ( #13, #22 ) ;
#158 = EDGE_CURVE ( 'NONE', #89, #89, #159, .T. ) ;
#159 = CIRCLE ( 'NONE', #197, 1.999999999999991784 ) ;
#160 = EDGE_LOOP ( 'NONE', ( #48 ) ) ;
#161 = CARTESIAN_POINT ( 'NONE',  ( 4.885231259955590439E-14, 1.999999999999990452, 13.99185842870425134 ) ) ;
#162 = ORIENTED_EDGE ( 'NONE', *, *, #158, .F. ) ;
#163 = AXIS2_PLACEMENT_3D ( 'NONE', #236, #100, #35 ) ;
#164 = AXIS2_PLACEMENT_3D ( 'NONE', #237, #36, #110 ) ;
#165 = ORIENTED_EDGE ( 'NONE', *, *, #198, .T. ) ;
#166 = CARTESIAN_POINT ( 'NONE',  ( 4.631844233215530654E-14, 2.418999999999998263, 13.26612914033286827 ) ) ;
#167 = DIRECTION ( 'NONE',  ( -3.491481338843133355E-15, 9.031770143711729009E-17, -1.000000000000000000 ) ) ;
#168 = PERSON_AND_ORGANIZATION ( #13, #22 ) ;
#169 = DIRECTION ( 'NONE',  ( 3.153425691349006731E-31, 1.000000000000000000, 9.031770143711729009E-17 ) ) ;
#170 = AXIS2_PLACEMENT_3D ( 'NONE', #77, #225, #18 ) ;
#171 = DIRECTION ( 'NONE',  ( -3.491481338843133355E-15, -4.935810443390353727E-16, -1.000000000000000000 ) ) ;
#172 = DESIGN_CONTEXT ( 'detailed design', #58, 'design' ) ;
#173 = DATE_AND_TIME ( #213, #7 ) ;
#174 = FACE_OUTER_BOUND ( 'NONE', #106, .T. ) ;
#175 = SHAPE_DEFINITION_REPRESENTATION ( #140, #3 ) ;
#176 = CC_DESIGN_PERSON_AND_ORGANIZATION_ASSIGNMENT ( #157, #131, ( #103 ) ) ;
#177 = PLANE ( 'NONE',  #182 ) ;
#178 = LOCAL_TIME ( 11, 3, 17.00000000000000000, #134 ) ;
#179 = AXIS2_PLACEMENT_3D ( 'NONE', #12, #130, #133 ) ;
#180 = CC_DESIGN_APPROVAL ( #155, ( #103 ) ) ;
#181 = EDGE_LOOP ( 'NONE', ( #8 ) ) ;
#182 = AXIS2_PLACEMENT_3D ( 'NONE', #228, #205, #108 ) ;
#183 =( LENGTH_UNIT ( ) NAMED_UNIT ( * ) SI_UNIT ( .MILLI., .METRE. ) );
#184 = ORIENTED_EDGE ( 'NONE', *, *, #43, .F. ) ;
#185 = CARTESIAN_POINT ( 'NONE',  ( 2.793185071074506684E-13, 1.599999999999987876, 80.00000000000000000 ) ) ;
#186 = CIRCLE ( 'NONE', #69, 1.999999999999995337 ) ;
#187 = DIRECTION ( 'NONE',  ( -3.491481338843133355E-15, 9.031770143711729009E-17, -1.000000000000000000 ) ) ;
#188 = CC_DESIGN_PERSON_AND_ORGANIZATION_ASSIGNMENT ( #55, #226, ( #192 ) ) ;
#189 = CARTESIAN_POINT ( 'NONE',  ( 3.770747078249398802E-30, 5.330600682624252249E-31, 1.079984886729710415E-15 ) ) ;
#190 = DATE_AND_TIME ( #76, #121 ) ;
#191 = DIRECTION ( 'NONE',  ( -3.491481338843133355E-15, 9.031770143711729009E-17, -1.000000000000000000 ) ) ;
#192 = PRODUCT_DEFINITION ( 'UNKNOWN', '', #103, #172 ) ;
#193 = DIRECTION ( 'NONE',  ( 0.0000000000000000000, 1.000000000000000000, 0.0000000000000000000 ) ) ;
#194 = DIRECTION ( 'NONE',  ( -3.491481338843133355E-15, 9.031770143711729009E-17, -1.000000000000000000 ) ) ;
#195 = CARTESIAN_POINT ( 'NONE',  ( -1.885373539124699401E-30, 2.188059892324148326, -5.399924433648552076E-16 ) ) ;
#196 = PERSON_AND_ORGANIZATION_ROLE ( 'classification_officer' ) ;
#197 = AXIS2_PLACEMENT_3D ( 'NONE', #15, #187, #72 ) ;
#198 = EDGE_CURVE ( 'NONE', #29, #29, #201, .T. ) ;
#199 = ORIENTED_EDGE ( 'NONE', *, *, #230, .T. ) ;
#200 = ADVANCED_FACE ( 'NONE', ( #38, #115 ), #91, .T. ) ;
#201 = CIRCLE ( 'NONE', #231, 2.188059892324148326 ) ;
#202 = DIRECTION ( 'NONE',  ( 3.153425691349006731E-31, 1.000000000000000000, 9.031770143711729009E-17 ) ) ;
#203 = FACE_BOUND ( 'NONE', #66, .T. ) ;
#204 = COORDINATED_UNIVERSAL_TIME_OFFSET ( 1, 0, .AHEAD. ) ;
#205 = DIRECTION ( 'NONE',  ( 3.491481338843133355E-15, 4.935810443390353727E-16, 1.000000000000000000 ) ) ;
#206 = UNCERTAINTY_MEASURE_WITH_UNIT (LENGTH_MEASURE( 1.000000000000000082E-05 ), #183, 'distance_accuracy_value', 'NONE');
#207 = CALENDAR_DATE ( 2021, 26, 11 ) ;
#208 = FACE_OUTER_BOUND ( 'NONE', #235, .T. ) ;
#209 = CALENDAR_DATE ( 2021, 26, 11 ) ;
#210 = AXIS2_PLACEMENT_3D ( 'NONE', #49, #167, #202 ) ;
#211 = APPROVAL_STATUS ( 'not_yet_approved' ) ;
#212 = DIRECTION ( 'NONE',  ( -3.491481338843133355E-15, -4.935810443390353727E-16, -1.000000000000000000 ) ) ;
#213 = CALENDAR_DATE ( 2021, 26, 11 ) ;
#214 = LOCAL_TIME ( 11, 3, 17.00000000000000000, #240 ) ;
#215 = VERTEX_POINT ( 'NONE', #185 ) ;
#216 = MANIFOLD_SOLID_BREP ( 'Corps-Déplacer/Copier1[1]', #98 ) ;
#217 = ORIENTED_EDGE ( 'NONE', *, *, #43, .T. ) ;
#218 = EDGE_LOOP ( 'NONE', ( #122 ) ) ;
#219 = ADVANCED_FACE ( 'NONE', ( #222, #220 ), #223, .T. ) ;
#220 = FACE_OUTER_BOUND ( 'NONE', #9, .T. ) ;
#221 = AXIS2_PLACEMENT_3D ( 'NONE', #32, #242, #54 ) ;
#222 = FACE_OUTER_BOUND ( 'NONE', #88, .T. ) ;
#223 = CYLINDRICAL_SURFACE ( 'NONE', #74, 1.999999999999993561 ) ;
#224 = MECHANICAL_CONTEXT ( 'NONE', #94, 'mechanical' ) ;
#225 = DIRECTION ( 'NONE',  ( 3.491481338843133355E-15, -9.031770143711729009E-17, 1.000000000000000000 ) ) ;
#226 = PERSON_AND_ORGANIZATION_ROLE ( 'creator' ) ;
#227 = AXIS2_PLACEMENT_3D ( 'NONE', #99, #171, #102 ) ;
#228 = CARTESIAN_POINT ( 'NONE',  ( 4.631844233215531285E-14, 6.547909875422008595E-15, 13.26612914033287005 ) ) ;
#229 = PERSON_AND_ORGANIZATION_ROLE ( 'design_owner' ) ;
#230 = EDGE_CURVE ( 'NONE', #215, #215, #17, .T. ) ;
#231 = AXIS2_PLACEMENT_3D ( 'NONE', #151, #57, #238 ) ;
#232 = ADVANCED_FACE ( 'NONE', ( #208 ), #113, .T. ) ;
#233 = AXIS2_PLACEMENT_3D ( 'NONE', #189, #20, #81 ) ;
#234 = ORIENTED_EDGE ( 'NONE', *, *, #230, .F. ) ;
#235 = EDGE_LOOP ( 'NONE', ( #165 ) ) ;
#236 = CARTESIAN_POINT ( 'NONE',  ( 4.631844233215531285E-14, 6.547909875422007806E-15, 13.26612914033287005 ) ) ;
#237 = CARTESIAN_POINT ( 'NONE',  ( 0.0000000000000000000, 0.0000000000000000000, 0.0000000000000000000 ) ) ;
#238 = DIRECTION ( 'NONE',  ( -1.723329005516446728E-30, 1.000000000000000000, -4.935810443390353727E-16 ) ) ;
#239 = FACE_OUTER_BOUND ( 'NONE', #105, .T. ) ;
#240 = COORDINATED_UNIVERSAL_TIME_OFFSET ( 1, 0, .AHEAD. ) ;
#241 = PRODUCT_RELATED_PRODUCT_CATEGORY ( 'detail', '', ( #104 ) ) ;
#242 = DIRECTION ( 'NONE',  ( -3.491481338843133355E-15, 9.031770143711729009E-17, -1.000000000000000000 ) ) ;
#243 = APPROVAL_STATUS ( 'not_yet_approved' ) ;
ENDSEC;
END-ISO-10303-21;
