ISO-10303-21;
HEADER;
FILE_DESCRIPTION (( 'STEP AP203' ),
    '1' );
FILE_NAME ('321386.step',
    '2021-11-26T10:03:16',
    ( '' ),
    ( '' ),
    'SwSTEP 2.0',
    'SolidWorks 2019',
    '' );
FILE_SCHEMA (( 'CONFIG_CONTROL_DESIGN' ));
ENDSEC;

DATA;
#1 = CIRCLE ( 'NONE', #138, 2.413999999999999257 ) ;
#2 = CC_DESIGN_APPROVAL ( #133, ( #87 ) ) ;
#3 = ADVANCED_FACE ( 'NONE', ( #123 ), #208, .T. ) ;
#4 = DIRECTION ( 'NONE',  ( -1.721646837639877160E-30, 1.000000000000000000, -4.930992523105757634E-16 ) ) ;
#5 = PRODUCT_DEFINITION ( 'UNKNOWN', '', #87, #25 ) ;
#6 = FACE_OUTER_BOUND ( 'NONE', #166, .T. ) ;
#7 = AXIS2_PLACEMENT_3D ( 'NONE', #47, #34, #114 ) ;
#8 = FACE_BOUND ( 'NONE', #82, .T. ) ;
#9 = DIRECTION ( 'NONE',  ( 3.491481338843133355E-15, 4.930992523105757634E-16, 1.000000000000000000 ) ) ;
#10 = PRODUCT_RELATED_PRODUCT_CATEGORY ( 'detail', '', ( #54 ) ) ;
#11 = CARTESIAN_POINT ( 'NONE',  ( 2.779219145719134403E-13, 1.999999999999988010, 79.60000000000000853 ) ) ;
#12 = AXIS2_PLACEMENT_3D ( 'NONE', #40, #159, #173 ) ;
#13 = APPROVAL_PERSON_ORGANIZATION ( #191, #199, #170 ) ;
#14 = EDGE_LOOP ( 'NONE', ( #51 ) ) ;
#15 = FACE_OUTER_BOUND ( 'NONE', #14, .T. ) ;
#16 = PERSON_AND_ORGANIZATION ( #145, #75 ) ;
#17 = ORIENTED_EDGE ( 'NONE', *, *, #140, .F. ) ;
#18 = DIRECTION ( 'NONE',  ( -1.721646837639877160E-30, 1.000000000000000000, -4.930992523105756648E-16 ) ) ;
#19 = AXIS2_PLACEMENT_3D ( 'NONE', #63, #137, #77 ) ;
#20 = AXIS2_PLACEMENT_3D ( 'NONE', #38, #120, #121 ) ;
#21 = CARTESIAN_POINT ( 'NONE',  ( 4.885231259955590439E-14, 1.999999999999990452, 13.99185842870425134 ) ) ;
#22 = ADVANCED_FACE ( 'NONE', ( #158 ), #116, .T. ) ;
#23 = ORIENTED_EDGE ( 'NONE', *, *, #155, .T. ) ;
#24 = APPROVAL_DATE_TIME ( #88, #133 ) ;
#25 = DESIGN_CONTEXT ( 'detailed design', #33, 'design' ) ;
#26 = PERSON_AND_ORGANIZATION ( #145, #75 ) ;
#27 = DATE_TIME_ROLE ( 'classification_date' ) ;
#28 = AXIS2_PLACEMENT_3D ( 'NONE', #122, #84, #165 ) ;
#29 = CC_DESIGN_DATE_AND_TIME_ASSIGNMENT ( #211, #192, ( #5 ) ) ;
#30 = DIRECTION ( 'NONE',  ( -3.491481338843133355E-15, -4.930992523105757634E-16, -1.000000000000000000 ) ) ;
#31 = CYLINDRICAL_SURFACE ( 'NONE', #189, 2.413999999999995705 ) ;
#32 = PLANE ( 'NONE',  #79 ) ;
#33 = APPLICATION_CONTEXT ( 'configuration controlled 3d designs of mechanical parts and assemblies' ) ;
#34 = DIRECTION ( 'NONE',  ( -3.491481338843133355E-15, 9.031770143711729009E-17, -1.000000000000000000 ) ) ;
#35 = DIRECTION ( 'NONE',  ( 0.0000000000000000000, 1.000000000000000000, 0.0000000000000000000 ) ) ;
#36 = CARTESIAN_POINT ( 'NONE',  ( 4.634867944751808789E-14, 6.545788724944559295E-15, 13.27478939437071404 ) ) ;
#37 = EDGE_LOOP ( 'NONE', ( #23 ) ) ;
#38 = CARTESIAN_POINT ( 'NONE',  ( 0.0000000000000000000, 0.0000000000000000000, 0.0000000000000000000 ) ) ;
#39 = DIRECTION ( 'NONE',  ( -3.491481338843133355E-15, 9.031770143711729009E-17, -1.000000000000000000 ) ) ;
#40 = CARTESIAN_POINT ( 'NONE',  ( 4.634867944751808158E-14, 2.413999999999998813, 13.27478939437071226 ) ) ;
#41 = APPROVAL_PERSON_ORGANIZATION ( #148, #190, #188 ) ;
#42 = PERSON_AND_ORGANIZATION ( #145, #75 ) ;
#43 = PERSON_AND_ORGANIZATION_ROLE ( 'design_supplier' ) ;
#44 = APPROVAL_DATE_TIME ( #151, #199 ) ;
#45 = MANIFOLD_SOLID_BREP ( 'Corps-Déplacer/Copier1[1]', #240 ) ;
#46 = DIRECTION ( 'NONE',  ( 1.721646837639877160E-30, -1.000000000000000000, 4.930992523105757634E-16 ) ) ;
#47 = CARTESIAN_POINT ( 'NONE',  ( 2.779219145719134403E-13, -7.189289034394536528E-15, 79.60000000000000853 ) ) ;
#48 = DIRECTION ( 'NONE',  ( -3.491481338843133355E-15, -4.930992523105757634E-16, -1.000000000000000000 ) ) ;
#49 = AXIS2_PLACEMENT_3D ( 'NONE', #193, #134, #92 ) ;
#50 = CARTESIAN_POINT ( 'NONE',  ( 1.396592535537257089E-15, 1.972397009242308477E-16, 0.4000000000000010769 ) ) ;
#51 = ORIENTED_EDGE ( 'NONE', *, *, #83, .F. ) ;
#52 = EDGE_LOOP ( 'NONE', ( #183 ) ) ;
#53 = VERTEX_POINT ( 'NONE', #11 ) ;
#54 = PRODUCT ( '321386', '321386', '', ( #67 ) ) ;
#55 = ORIENTED_EDGE ( 'NONE', *, *, #242, .T. ) ;
#56 = CC_DESIGN_DATE_AND_TIME_ASSIGNMENT ( #243, #27, ( #186 ) ) ;
#57 = APPROVAL_STATUS ( 'not_yet_approved' ) ;
#58 = CALENDAR_DATE ( 2021, 26, 11 ) ;
#59 = APPROVAL_ROLE ( '' ) ;
#60 = CALENDAR_DATE ( 2021, 26, 11 ) ;
#61 = FACE_OUTER_BOUND ( 'NONE', #169, .T. ) ;
#62 = AXIS2_PLACEMENT_3D ( 'NONE', #172, #9, #76 ) ;
#63 = CARTESIAN_POINT ( 'NONE',  ( 4.634867944751808158E-14, -1.198948465161385132E-15, 13.27478939437071226 ) ) ;
#64 = EDGE_CURVE ( 'NONE', #223, #223, #85, .T. ) ;
#65 = CC_DESIGN_PERSON_AND_ORGANIZATION_ASSIGNMENT ( #238, #105, ( #5 ) ) ;
#66 = CARTESIAN_POINT ( 'NONE',  ( 2.793185071074506684E-13, 1.599999999999987876, 80.00000000000000000 ) ) ;
#67 = MECHANICAL_CONTEXT ( 'NONE', #234, 'mechanical' ) ;
#68 =( NAMED_UNIT ( * ) SI_UNIT ( $, .STERADIAN. ) SOLID_ANGLE_UNIT ( ) );
#69 = APPROVAL_PERSON_ORGANIZATION ( #42, #133, #59 ) ;
#70 = ADVANCED_FACE ( 'NONE', ( #136, #61 ), #31, .T. ) ;
#71 = AXIS2_PLACEMENT_3D ( 'NONE', #36, #99, #236 ) ;
#72 = CALENDAR_DATE ( 2021, 26, 11 ) ;
#73 = CALENDAR_DATE ( 2021, 26, 11 ) ;
#74 = FACE_BOUND ( 'NONE', #97, .T. ) ;
#75 = ORGANIZATION ( 'UNSPECIFIED', 'UNSPECIFIED', '' ) ;
#76 = DIRECTION ( 'NONE',  ( 1.721646837639876809E-30, -1.000000000000000000, 4.930992523105756648E-16 ) ) ;
#77 = DIRECTION ( 'NONE',  ( 0.0000000000000000000, 1.000000000000000000, 0.0000000000000000000 ) ) ;
#78 = ADVANCED_FACE ( 'NONE', ( #8, #113 ), #197, .T. ) ;
#79 = AXIS2_PLACEMENT_3D ( 'NONE', #93, #216, #174 ) ;
#80 = ORIENTED_EDGE ( 'NONE', *, *, #64, .T. ) ;
#81 = VERTEX_POINT ( 'NONE', #143 ) ;
#82 = EDGE_LOOP ( 'NONE', ( #163 ) ) ;
#83 = EDGE_CURVE ( 'NONE', #185, #185, #91, .T. ) ;
#84 = DIRECTION ( 'NONE',  ( -3.491481338843133355E-15, 9.031770143711729009E-17, -1.000000000000000000 ) ) ;
#85 = CIRCLE ( 'NONE', #180, 2.413999999999999702 ) ;
#86 = CARTESIAN_POINT ( 'NONE',  ( -6.842277657836020854E-46, 2.183059892324149320, 0.0000000000000000000 ) ) ;
#87 = PRODUCT_DEFINITION_FORMATION_WITH_SPECIFIED_SOURCE ( 'ANY', '', #54, .NOT_KNOWN. ) ;
#88 = DATE_AND_TIME ( #73, #131 ) ;
#89 = CALENDAR_DATE ( 2021, 26, 11 ) ;
#90 = APPROVAL_DATE_TIME ( #106, #190 ) ;
#91 = CIRCLE ( 'NONE', #135, 1.999999999999991784 ) ;
#92 = DIRECTION ( 'NONE',  ( 0.0000000000000000000, 1.000000000000000000, 0.0000000000000000000 ) ) ;
#93 = CARTESIAN_POINT ( 'NONE',  ( 2.793185071074506684E-13, -7.225416114969383207E-15, 80.00000000000000000 ) ) ;
#94 = CARTESIAN_POINT ( 'NONE',  ( 4.885231259955590439E-14, -1.263712492114123682E-15, 13.99185842870425134 ) ) ;
#95 = DIRECTION ( 'NONE',  ( -1.721646837639876809E-30, 1.000000000000000000, -4.930992523105757634E-16 ) ) ;
#96 =( NAMED_UNIT ( * ) PLANE_ANGLE_UNIT ( ) SI_UNIT ( $, .RADIAN. ) );
#97 = EDGE_LOOP ( 'NONE', ( #224 ) ) ;
#98 = ADVANCED_FACE ( 'NONE', ( #6, #196 ), #194, .T. ) ;
#99 = DIRECTION ( 'NONE',  ( -3.491481338843133355E-15, -4.930992523105757634E-16, -1.000000000000000000 ) ) ;
#100 = APPLICATION_PROTOCOL_DEFINITION ( 'international standard', 'config_control_design', 1994, #234 ) ;
#101 = DIRECTION ( 'NONE',  ( 0.0000000000000000000, 1.000000000000000000, 0.0000000000000000000 ) ) ;
#102 = CIRCLE ( 'NONE', #107, 2.183059892324149320 ) ;
#103 = EDGE_LOOP ( 'NONE', ( #17 ) ) ;
#104 = CC_DESIGN_PERSON_AND_ORGANIZATION_ASSIGNMENT ( #212, #43, ( #87 ) ) ;
#105 = PERSON_AND_ORGANIZATION_ROLE ( 'creator' ) ;
#106 = DATE_AND_TIME ( #60, #117 ) ;
#107 = AXIS2_PLACEMENT_3D ( 'NONE', #231, #48, #18 ) ;
#108 = LOCAL_TIME ( 11, 3, 16.00000000000000000, #109 ) ;
#109 = COORDINATED_UNIVERSAL_TIME_OFFSET ( 1, 0, .AHEAD. ) ;
#110 = PERSON_AND_ORGANIZATION_ROLE ( 'creator' ) ;
#111 = ADVANCED_FACE ( 'NONE', ( #132 ), #213, .T. ) ;
#112 = CC_DESIGN_PERSON_AND_ORGANIZATION_ASSIGNMENT ( #26, #110, ( #87 ) ) ;
#113 = FACE_OUTER_BOUND ( 'NONE', #164, .T. ) ;
#114 = DIRECTION ( 'NONE',  ( 0.0000000000000000000, 1.000000000000000000, 0.0000000000000000000 ) ) ;
#115 = CARTESIAN_POINT ( 'NONE',  ( 4.634867944751808158E-14, -1.198948465161385132E-15, 13.27478939437071226 ) ) ;
#116 = PLANE ( 'NONE',  #167 ) ;
#117 = LOCAL_TIME ( 11, 3, 16.00000000000000000, #152 ) ;
#118 = MANIFOLD_SOLID_BREP ( 'Corps-Déplacer/Copier1[2]', #130 ) ;
#119 = VERTEX_POINT ( 'NONE', #86 ) ;
#120 = DIRECTION ( 'NONE',  ( 0.0000000000000000000, 0.0000000000000000000, 1.000000000000000000 ) ) ;
#121 = DIRECTION ( 'NONE',  ( 1.000000000000000000, 0.0000000000000000000, 0.0000000000000000000 ) ) ;
#122 = CARTESIAN_POINT ( 'NONE',  ( 0.0000000000000000000, 0.0000000000000000000, 0.0000000000000000000 ) ) ;
#123 = FACE_OUTER_BOUND ( 'NONE', #207, .T. ) ;
#124 = APPLICATION_PROTOCOL_DEFINITION ( 'international standard', 'config_control_design', 1994, #33 ) ;
#125 = CIRCLE ( 'NONE', #161, 1.999999999999995337 ) ;
#126 = CC_DESIGN_APPROVAL ( #199, ( #5 ) ) ;
#127 = PERSON_AND_ORGANIZATION ( #145, #75 ) ;
#128 = COORDINATED_UNIVERSAL_TIME_OFFSET ( 1, 0, .AHEAD. ) ;
#129 = COORDINATED_UNIVERSAL_TIME_OFFSET ( 1, 0, .AHEAD. ) ;
#130 = CLOSED_SHELL ( 'NONE', ( #111, #70, #98, #22 ) ) ;
#131 = LOCAL_TIME ( 11, 3, 16.00000000000000000, #129 ) ;
#132 = FACE_OUTER_BOUND ( 'NONE', #162, .T. ) ;
#133 = APPROVAL ( #57, 'UNSPECIFIED' ) ;
#134 = DIRECTION ( 'NONE',  ( -3.491481338843133355E-15, 9.031770143711729009E-17, -1.000000000000000000 ) ) ;
#135 = AXIS2_PLACEMENT_3D ( 'NONE', #94, #177, #232 ) ;
#136 = FACE_OUTER_BOUND ( 'NONE', #225, .T. ) ;
#137 = DIRECTION ( 'NONE',  ( -3.491481338843133355E-15, 9.031770143711729009E-17, -1.000000000000000000 ) ) ;
#138 = AXIS2_PLACEMENT_3D ( 'NONE', #50, #235, #144 ) ;
#139 =( LENGTH_UNIT ( ) NAMED_UNIT ( * ) SI_UNIT ( .MILLI., .METRE. ) );
#140 = EDGE_CURVE ( 'NONE', #220, #220, #153, .T. ) ;
#141 = ORIENTED_EDGE ( 'NONE', *, *, #178, .T. ) ;
#142 = ADVANCED_FACE ( 'NONE', ( #74, #156 ), #209, .T. ) ;
#143 = CARTESIAN_POINT ( 'NONE',  ( 1.396592535537252948E-15, 2.413999999999999257, 0.3999999999999999112 ) ) ;
#144 = DIRECTION ( 'NONE',  ( -1.755197132415874133E-30, 1.000000000000000000, -4.940440719693683671E-16 ) ) ;
#145 = PERSON ( 'UNSPECIFIED', 'UNSPECIFIED', 'UNSPECIFIED', ('UNSPECIFIED'), ('UNSPECIFIED'), ('UNSPECIFIED') ) ;
#146 = CARTESIAN_POINT ( 'NONE',  ( 4.634867944751808158E-14, 2.413999999999998813, 13.27478939437071226 ) ) ;
#147 = EDGE_LOOP ( 'NONE', ( #55 ) ) ;
#148 = PERSON_AND_ORGANIZATION ( #145, #75 ) ;
#149 = AXIS2_PLACEMENT_3D ( 'NONE', #157, #215, #46 ) ;
#150 = UNCERTAINTY_MEASURE_WITH_UNIT (LENGTH_MEASURE( 1.000000000000000082E-05 ), #139, 'distance_accuracy_value', 'NONE');
#151 = DATE_AND_TIME ( #58, #108 ) ;
#152 = COORDINATED_UNIVERSAL_TIME_OFFSET ( 1, 0, .AHEAD. ) ;
#153 = CIRCLE ( 'NONE', #49, 1.599999999999994982 ) ;
#154 = ADVANCED_FACE ( 'NONE', ( #214 ), #32, .T. ) ;
#155 = EDGE_CURVE ( 'NONE', #119, #119, #102, .T. ) ;
#156 = FACE_OUTER_BOUND ( 'NONE', #219, .T. ) ;
#157 = CARTESIAN_POINT ( 'NONE',  ( 4.634867944751808158E-14, 6.545788724944558506E-15, 13.27478939437071226 ) ) ;
#158 = FACE_OUTER_BOUND ( 'NONE', #37, .T. ) ;
#159 = DIRECTION ( 'NONE',  ( -3.491481338843133355E-15, 9.031770143711729009E-17, -1.000000000000000000 ) ) ;
#160 = CC_DESIGN_PERSON_AND_ORGANIZATION_ASSIGNMENT ( #127, #171, ( #186 ) ) ;
#161 = AXIS2_PLACEMENT_3D ( 'NONE', #205, #39, #101 ) ;
#162 = EDGE_LOOP ( 'NONE', ( #187 ) ) ;
#163 = ORIENTED_EDGE ( 'NONE', *, *, #83, .T. ) ;
#164 = EDGE_LOOP ( 'NONE', ( #203 ) ) ;
#165 = DIRECTION ( 'NONE',  ( 3.153425691349006731E-31, 1.000000000000000000, 9.031770143711729009E-17 ) ) ;
#166 = EDGE_LOOP ( 'NONE', ( #141 ) ) ;
#167 = AXIS2_PLACEMENT_3D ( 'NONE', #230, #30, #4 ) ;
#168 = CYLINDRICAL_SURFACE ( 'NONE', #28, 1.999999999999993561 ) ;
#169 = EDGE_LOOP ( 'NONE', ( #181 ) ) ;
#170 = APPROVAL_ROLE ( '' ) ;
#171 = PERSON_AND_ORGANIZATION_ROLE ( 'classification_officer' ) ;
#172 = CARTESIAN_POINT ( 'NONE',  ( 3.758458159998321668E-30, 5.308041855809616298E-31, 1.076465200654243955E-15 ) ) ;
#173 = DIRECTION ( 'NONE',  ( 3.153425691349006731E-31, 1.000000000000000000, 9.031770143711729009E-17 ) ) ;
#174 = DIRECTION ( 'NONE',  ( -3.153425691349006731E-31, -1.000000000000000000, -9.031770143711729009E-17 ) ) ;
#175 = CC_DESIGN_APPROVAL ( #190, ( #186 ) ) ;
#176 = CARTESIAN_POINT ( 'NONE',  ( 0.0000000000000000000, 0.0000000000000000000, 0.0000000000000000000 ) ) ;
#177 = DIRECTION ( 'NONE',  ( -3.491481338843133355E-15, 9.031770143711729009E-17, -1.000000000000000000 ) ) ;
#178 = EDGE_CURVE ( 'NONE', #81, #81, #1, .T. ) ;
#179 = CC_DESIGN_PERSON_AND_ORGANIZATION_ASSIGNMENT ( #16, #227, ( #54 ) ) ;
#180 = AXIS2_PLACEMENT_3D ( 'NONE', #115, #198, #35 ) ;
#181 = ORIENTED_EDGE ( 'NONE', *, *, #178, .F. ) ;
#182 = CC_DESIGN_SECURITY_CLASSIFICATION ( #186, ( #87 ) ) ;
#183 = ORIENTED_EDGE ( 'NONE', *, *, #155, .F. ) ;
#184 = EDGE_CURVE ( 'NONE', #237, #237, #233, .T. ) ;
#185 = VERTEX_POINT ( 'NONE', #21 ) ;
#186 = SECURITY_CLASSIFICATION ( '', '', #210 ) ;
#187 = ORIENTED_EDGE ( 'NONE', *, *, #184, .F. ) ;
#188 = APPROVAL_ROLE ( '' ) ;
#189 = AXIS2_PLACEMENT_3D ( 'NONE', #176, #229, #95 ) ;
#190 = APPROVAL ( #226, 'UNSPECIFIED' ) ;
#191 = PERSON_AND_ORGANIZATION ( #145, #75 ) ;
#192 = DATE_TIME_ROLE ( 'creation_date' ) ;
#193 = CARTESIAN_POINT ( 'NONE',  ( 2.793185071074506684E-13, -7.225416114969383207E-15, 80.00000000000000000 ) ) ;
#194 = CONICAL_SURFACE ( 'NONE', #62, 2.183059892324149320, 0.5235987755982979275 ) ;
#195 = LOCAL_TIME ( 11, 3, 16.00000000000000000, #128 ) ;
#196 = FACE_BOUND ( 'NONE', #52, .T. ) ;
#197 = CONICAL_SURFACE ( 'NONE', #19, 2.413999999999999702, 0.5235987755982922653 ) ;
#198 = DIRECTION ( 'NONE',  ( -3.491481338843133355E-15, 9.031770143711729009E-17, -1.000000000000000000 ) ) ;
#199 = APPROVAL ( #239, 'UNSPECIFIED' ) ;
#200 = ORIENTED_EDGE ( 'NONE', *, *, #184, .T. ) ;
#201 = CARTESIAN_POINT ( 'NONE',  ( 4.634867944751808158E-14, 2.413999999999998813, 13.27478939437071226 ) ) ;
#202 = PRODUCT_DEFINITION_SHAPE ( 'NONE', 'NONE',  #5 ) ;
#203 = ORIENTED_EDGE ( 'NONE', *, *, #64, .F. ) ;
#204 =( GEOMETRIC_REPRESENTATION_CONTEXT ( 3 ) GLOBAL_UNCERTAINTY_ASSIGNED_CONTEXT ( ( #150 ) ) GLOBAL_UNIT_ASSIGNED_CONTEXT ( ( #139, #96, #68 ) ) REPRESENTATION_CONTEXT ( 'NONE', 'WORKASPACE' ) );
#205 = CARTESIAN_POINT ( 'NONE',  ( 2.779219145719134403E-13, -7.189289034394536528E-15, 79.60000000000000853 ) ) ;
#206 = ADVANCED_BREP_SHAPE_REPRESENTATION ( '321386', ( #45, #118, #20 ), #204 ) ;
#207 = EDGE_LOOP ( 'NONE', ( #80 ) ) ;
#208 = PLANE ( 'NONE',  #12 ) ;
#209 = CONICAL_SURFACE ( 'NONE', #7, 1.999999999999995337, 0.7853981633974516097 ) ;
#210 = SECURITY_CLASSIFICATION_LEVEL ( 'unclassified' ) ;
#211 = DATE_AND_TIME ( #72, #222 ) ;
#212 = PERSON_AND_ORGANIZATION ( #145, #75 ) ;
#213 = PLANE ( 'NONE',  #149 ) ;
#214 = FACE_OUTER_BOUND ( 'NONE', #103, .T. ) ;
#215 = DIRECTION ( 'NONE',  ( 3.491481338843133355E-15, 4.930992523105757634E-16, 1.000000000000000000 ) ) ;
#216 = DIRECTION ( 'NONE',  ( 3.491481338843133355E-15, -9.031770143711729009E-17, 1.000000000000000000 ) ) ;
#217 = FACE_OUTER_BOUND ( 'NONE', #147, .T. ) ;
#218 = ORIENTED_EDGE ( 'NONE', *, *, #242, .F. ) ;
#219 = EDGE_LOOP ( 'NONE', ( #218 ) ) ;
#220 = VERTEX_POINT ( 'NONE', #66 ) ;
#221 = ADVANCED_FACE ( 'NONE', ( #217, #15 ), #168, .T. ) ;
#222 = LOCAL_TIME ( 11, 3, 16.00000000000000000, #241 ) ;
#223 = VERTEX_POINT ( 'NONE', #201 ) ;
#224 = ORIENTED_EDGE ( 'NONE', *, *, #140, .T. ) ;
#225 = EDGE_LOOP ( 'NONE', ( #200 ) ) ;
#226 = APPROVAL_STATUS ( 'not_yet_approved' ) ;
#227 = PERSON_AND_ORGANIZATION_ROLE ( 'design_owner' ) ;
#228 = SHAPE_DEFINITION_REPRESENTATION ( #202, #206 ) ;
#229 = DIRECTION ( 'NONE',  ( -3.491481338843133355E-15, -4.930992523105757634E-16, -1.000000000000000000 ) ) ;
#230 = CARTESIAN_POINT ( 'NONE',  ( -1.879229079999160834E-30, 2.183059892324149320, -5.382326003271219773E-16 ) ) ;
#231 = CARTESIAN_POINT ( 'NONE',  ( 3.758458159998321668E-30, 5.308041855809616298E-31, 1.076465200654243955E-15 ) ) ;
#232 = DIRECTION ( 'NONE',  ( 0.0000000000000000000, 1.000000000000000000, 0.0000000000000000000 ) ) ;
#233 = CIRCLE ( 'NONE', #71, 2.413999999999992152 ) ;
#234 = APPLICATION_CONTEXT ( 'configuration controlled 3d designs of mechanical parts and assemblies' ) ;
#235 = DIRECTION ( 'NONE',  ( -3.491481338843133355E-15, -4.930992523105757634E-16, -1.000000000000000000 ) ) ;
#236 = DIRECTION ( 'NONE',  ( -2.553014010786733528E-30, 1.000000000000000000, -7.186095592281742859E-16 ) ) ;
#237 = VERTEX_POINT ( 'NONE', #146 ) ;
#238 = PERSON_AND_ORGANIZATION ( #145, #75 ) ;
#239 = APPROVAL_STATUS ( 'not_yet_approved' ) ;
#240 = CLOSED_SHELL ( 'NONE', ( #154, #142, #221, #78, #3 ) ) ;
#241 = COORDINATED_UNIVERSAL_TIME_OFFSET ( 1, 0, .AHEAD. ) ;
#242 = EDGE_CURVE ( 'NONE', #53, #53, #125, .T. ) ;
#243 = DATE_AND_TIME ( #89, #195 ) ;
ENDSEC;
END-ISO-10303-21;
