ISO-10303-21;
HEADER;
FILE_DESCRIPTION (( 'STEP AP203' ),
    '1' );
FILE_NAME ('321385.step',
    '2021-11-26T10:03:16',
    ( '' ),
    ( '' ),
    'SwSTEP 2.0',
    'SolidWorks 2019',
    '' );
FILE_SCHEMA (( 'CONFIG_CONTROL_DESIGN' ));
ENDSEC;

DATA;
#1 = COORDINATED_UNIVERSAL_TIME_OFFSET ( 1, 0, .AHEAD. ) ;
#2 = CIRCLE ( 'NONE', #13, 1.999999999999991784 ) ;
#3 = APPROVAL_PERSON_ORGANIZATION ( #174, #91, #50 ) ;
#4 = ADVANCED_FACE ( 'NONE', ( #199, #234 ), #12, .T. ) ;
#5 = FACE_OUTER_BOUND ( 'NONE', #164, .T. ) ;
#6 = EDGE_LOOP ( 'NONE', ( #123 ) ) ;
#7 = CARTESIAN_POINT ( 'NONE',  ( 3.746190840796322380E-30, 5.285554158956813583E-31, 1.072951700792301621E-15 ) ) ;
#8 = AXIS2_PLACEMENT_3D ( 'NONE', #237, #158, #56 ) ;
#9 = EDGE_LOOP ( 'NONE', ( #98 ) ) ;
#10 = APPROVAL ( #85, 'UNSPECIFIED' ) ;
#11 = DIRECTION ( 'NONE',  ( -1.719966863169618913E-30, 1.000000000000000000, -4.926180884986521077E-16 ) ) ;
#12 = CYLINDRICAL_SURFACE ( 'NONE', #229, 2.408999999999994479 ) ;
#13 = AXIS2_PLACEMENT_3D ( 'NONE', #190, #154, #226 ) ;
#14 = CARTESIAN_POINT ( 'NONE',  ( 4.637891656288086294E-14, 6.543667574467116306E-15, 13.28344964840855802 ) ) ;
#15 = CONICAL_SURFACE ( 'NONE', #100, 2.178059892324147651, 0.5235987755982979275 ) ;
#16 = PLANE ( 'NONE',  #228 ) ;
#17 = ADVANCED_FACE ( 'NONE', ( #132 ), #204, .T. ) ;
#18 = FACE_OUTER_BOUND ( 'NONE', #232, .T. ) ;
#19 = EDGE_CURVE ( 'NONE', #217, #217, #175, .T. ) ;
#20 = EDGE_LOOP ( 'NONE', ( #60 ) ) ;
#21 = DIRECTION ( 'NONE',  ( 0.0000000000000000000, 1.000000000000000000, 0.0000000000000000000 ) ) ;
#22 = CARTESIAN_POINT ( 'NONE',  ( 0.0000000000000000000, 0.0000000000000000000, 0.0000000000000000000 ) ) ;
#23 = CLOSED_SHELL ( 'NONE', ( #77, #4, #73, #224 ) ) ;
#24 = PERSON_AND_ORGANIZATION ( #225, #150 ) ;
#25 = COORDINATED_UNIVERSAL_TIME_OFFSET ( 1, 0, .AHEAD. ) ;
#26 = DIRECTION ( 'NONE',  ( -3.491481338843133355E-15, 9.031770143711729009E-17, -1.000000000000000000 ) ) ;
#27 = COORDINATED_UNIVERSAL_TIME_OFFSET ( 1, 0, .AHEAD. ) ;
#28 = FACE_OUTER_BOUND ( 'NONE', #160, .T. ) ;
#29 = SHAPE_DEFINITION_REPRESENTATION ( #205, #129 ) ;
#30 = CARTESIAN_POINT ( 'NONE',  ( 0.0000000000000000000, 2.178059892324147651, 0.0000000000000000000 ) ) ;
#31 = CALENDAR_DATE ( 2021, 26, 11 ) ;
#32 = LOCAL_TIME ( 11, 3, 16.00000000000000000, #69 ) ;
#33 = CC_DESIGN_PERSON_AND_ORGANIZATION_ASSIGNMENT ( #24, #101, ( #216 ) ) ;
#34 = CARTESIAN_POINT ( 'NONE',  ( 0.0000000000000000000, 0.0000000000000000000, 0.0000000000000000000 ) ) ;
#35 = LOCAL_TIME ( 11, 3, 16.00000000000000000, #1 ) ;
#36 = DIRECTION ( 'NONE',  ( -3.491481338843133355E-15, 9.031770143711729009E-17, -1.000000000000000000 ) ) ;
#37 = DIRECTION ( 'NONE',  ( -3.491481338843133355E-15, 9.031770143711729009E-17, -1.000000000000000000 ) ) ;
#38 = PERSON_AND_ORGANIZATION_ROLE ( 'creator' ) ;
#39 = CARTESIAN_POINT ( 'NONE',  ( 1.396592535537257089E-15, 1.970472353994613854E-16, 0.4000000000000010769 ) ) ;
#40 = APPROVAL_DATE_TIME ( #219, #10 ) ;
#41 = CC_DESIGN_APPROVAL ( #176, ( #188 ) ) ;
#42 = PERSON_AND_ORGANIZATION ( #225, #150 ) ;
#43 = ORIENTED_EDGE ( 'NONE', *, *, #46, .T. ) ;
#44 = COORDINATED_UNIVERSAL_TIME_OFFSET ( 1, 0, .AHEAD. ) ;
#45 =( LENGTH_UNIT ( ) NAMED_UNIT ( * ) SI_UNIT ( .MILLI., .METRE. ) );
#46 = EDGE_CURVE ( 'NONE', #183, #183, #59, .T. ) ;
#47 = CC_DESIGN_APPROVAL ( #91, ( #216 ) ) ;
#48 = VERTEX_POINT ( 'NONE', #208 ) ;
#49 = CARTESIAN_POINT ( 'NONE',  ( 2.793185071074506684E-13, -7.225416114969383207E-15, 80.00000000000000000 ) ) ;
#50 = APPROVAL_ROLE ( '' ) ;
#51 = MANIFOLD_SOLID_BREP ( 'Corps-Déplacer/Copier1[2]', #23 ) ;
#52 = CC_DESIGN_APPROVAL ( #10, ( #192 ) ) ;
#53 = PRODUCT_RELATED_PRODUCT_CATEGORY ( 'detail', '', ( #163 ) ) ;
#54 = AXIS2_PLACEMENT_3D ( 'NONE', #57, #36, #93 ) ;
#55 = CARTESIAN_POINT ( 'NONE',  ( -1.873095420398161190E-30, 2.178059892324147651, -5.364758503961508106E-16 ) ) ;
#56 = DIRECTION ( 'NONE',  ( -3.153425691349006731E-31, -1.000000000000000000, -9.031770143711729009E-17 ) ) ;
#57 = CARTESIAN_POINT ( 'NONE',  ( 2.779219145719134403E-13, -7.189289034394536528E-15, 79.60000000000000853 ) ) ;
#58 = ORIENTED_EDGE ( 'NONE', *, *, #95, .F. ) ;
#59 = CIRCLE ( 'NONE', #110, 2.408999999999997588 ) ;
#60 = ORIENTED_EDGE ( 'NONE', *, *, #46, .F. ) ;
#61 = ORIENTED_EDGE ( 'NONE', *, *, #19, .F. ) ;
#62 = PERSON_AND_ORGANIZATION_ROLE ( 'design_supplier' ) ;
#63 = APPLICATION_PROTOCOL_DEFINITION ( 'international standard', 'config_control_design', 1994, #193 ) ;
#64 = DIRECTION ( 'NONE',  ( -3.491481338843133355E-15, 9.031770143711729009E-17, -1.000000000000000000 ) ) ;
#65 = DATE_TIME_ROLE ( 'creation_date' ) ;
#66 = APPLICATION_CONTEXT ( 'configuration controlled 3d designs of mechanical parts and assemblies' ) ;
#67 = DIRECTION ( 'NONE',  ( 0.0000000000000000000, 0.0000000000000000000, 1.000000000000000000 ) ) ;
#68 = ADVANCED_FACE ( 'NONE', ( #170, #28 ), #207, .T. ) ;
#69 = COORDINATED_UNIVERSAL_TIME_OFFSET ( 1, 0, .AHEAD. ) ;
#70 = DIRECTION ( 'NONE',  ( -3.491481338843133355E-15, -4.926180884986521077E-16, -1.000000000000000000 ) ) ;
#71 = AXIS2_PLACEMENT_3D ( 'NONE', #81, #26, #21 ) ;
#72 = DESIGN_CONTEXT ( 'detailed design', #193, 'design' ) ;
#73 = ADVANCED_FACE ( 'NONE', ( #180, #136 ), #15, .T. ) ;
#74 = DIRECTION ( 'NONE',  ( -3.491481338843133355E-15, 9.031770143711729009E-17, -1.000000000000000000 ) ) ;
#75 = DATE_AND_TIME ( #31, #35 ) ;
#76 = APPROVAL_PERSON_ORGANIZATION ( #42, #176, #203 ) ;
#77 = ADVANCED_FACE ( 'NONE', ( #218 ), #16, .T. ) ;
#78 = PLANE ( 'NONE',  #201 ) ;
#79 = CIRCLE ( 'NONE', #134, 2.178059892324147651 ) ;
#80 = CARTESIAN_POINT ( 'NONE',  ( 2.779219145719134403E-13, -7.189289034394536528E-15, 79.60000000000000853 ) ) ;
#81 = CARTESIAN_POINT ( 'NONE',  ( 4.637891656288085663E-14, -1.199730639399944625E-15, 13.28344964840855624 ) ) ;
#82 = LOCAL_TIME ( 11, 3, 16.00000000000000000, #44 ) ;
#83 = DATE_AND_TIME ( #125, #94 ) ;
#84 = EDGE_LOOP ( 'NONE', ( #221 ) ) ;
#85 = APPROVAL_STATUS ( 'not_yet_approved' ) ;
#86 = DIRECTION ( 'NONE',  ( -3.491481338843133355E-15, -4.926180884986521077E-16, -1.000000000000000000 ) ) ;
#87 = AXIS2_PLACEMENT_3D ( 'NONE', #202, #64, #198 ) ;
#88 = CLOSED_SHELL ( 'NONE', ( #181, #230, #172, #68, #17 ) ) ;
#89 = APPROVAL_DATE_TIME ( #152, #91 ) ;
#90 = DIRECTION ( 'NONE',  ( -3.491481338843133355E-15, 9.031770143711729009E-17, -1.000000000000000000 ) ) ;
#91 = APPROVAL ( #124, 'UNSPECIFIED' ) ;
#92 =( NAMED_UNIT ( * ) SI_UNIT ( $, .STERADIAN. ) SOLID_ANGLE_UNIT ( ) );
#93 = DIRECTION ( 'NONE',  ( 0.0000000000000000000, 1.000000000000000000, 0.0000000000000000000 ) ) ;
#94 = LOCAL_TIME ( 11, 3, 16.00000000000000000, #27 ) ;
#95 = EDGE_CURVE ( 'NONE', #173, #173, #155, .T. ) ;
#96 = DIRECTION ( 'NONE',  ( -3.491481338843133355E-15, -4.926180884986521077E-16, -1.000000000000000000 ) ) ;
#97 =( GEOMETRIC_REPRESENTATION_CONTEXT ( 3 ) GLOBAL_UNCERTAINTY_ASSIGNED_CONTEXT ( ( #106 ) ) GLOBAL_UNIT_ASSIGNED_CONTEXT ( ( #45, #104, #92 ) ) REPRESENTATION_CONTEXT ( 'NONE', 'WORKASPACE' ) );
#98 = ORIENTED_EDGE ( 'NONE', *, *, #196, .T. ) ;
#99 = DIRECTION ( 'NONE',  ( -1.758840131860490989E-30, 1.000000000000000000, -4.950694851531988292E-16 ) ) ;
#100 = AXIS2_PLACEMENT_3D ( 'NONE', #7, #236, #195 ) ;
#101 = PERSON_AND_ORGANIZATION_ROLE ( 'classification_officer' ) ;
#102 = ORIENTED_EDGE ( 'NONE', *, *, #112, .T. ) ;
#103 = ORIENTED_EDGE ( 'NONE', *, *, #178, .F. ) ;
#104 =( NAMED_UNIT ( * ) PLANE_ANGLE_UNIT ( ) SI_UNIT ( $, .RADIAN. ) );
#105 = DIRECTION ( 'NONE',  ( -1.719966863169618913E-30, 1.000000000000000000, -4.926180884986521077E-16 ) ) ;
#106 = UNCERTAINTY_MEASURE_WITH_UNIT (LENGTH_MEASURE( 1.000000000000000082E-05 ), #45, 'distance_accuracy_value', 'NONE');
#107 = CARTESIAN_POINT ( 'NONE',  ( 2.779219145719134403E-13, 1.999999999999988010, 79.60000000000000853 ) ) ;
#108 = CALENDAR_DATE ( 2021, 26, 11 ) ;
#109 = DATE_TIME_ROLE ( 'classification_date' ) ;
#110 = AXIS2_PLACEMENT_3D ( 'NONE', #39, #86, #99 ) ;
#111 = DIRECTION ( 'NONE',  ( 0.0000000000000000000, 1.000000000000000000, 0.0000000000000000000 ) ) ;
#112 = EDGE_CURVE ( 'NONE', #169, #169, #79, .T. ) ;
#113 = AXIS2_PLACEMENT_3D ( 'NONE', #242, #37, #115 ) ;
#114 = APPROVAL_DATE_TIME ( #83, #176 ) ;
#115 = DIRECTION ( 'NONE',  ( 0.0000000000000000000, 1.000000000000000000, 0.0000000000000000000 ) ) ;
#116 = ORIENTED_EDGE ( 'NONE', *, *, #19, .T. ) ;
#117 = DIRECTION ( 'NONE',  ( -3.491481338843133355E-15, 9.031770143711729009E-17, -1.000000000000000000 ) ) ;
#118 = PERSON_AND_ORGANIZATION ( #225, #150 ) ;
#119 = EDGE_LOOP ( 'NONE', ( #116 ) ) ;
#120 = CC_DESIGN_PERSON_AND_ORGANIZATION_ASSIGNMENT ( #233, #38, ( #188 ) ) ;
#121 = APPROVAL_STATUS ( 'not_yet_approved' ) ;
#122 = APPLICATION_PROTOCOL_DEFINITION ( 'international standard', 'config_control_design', 1994, #66 ) ;
#123 = ORIENTED_EDGE ( 'NONE', *, *, #166, .F. ) ;
#124 = APPROVAL_STATUS ( 'not_yet_approved' ) ;
#125 = CALENDAR_DATE ( 2021, 26, 11 ) ;
#126 = CC_DESIGN_PERSON_AND_ORGANIZATION_ASSIGNMENT ( #162, #62, ( #188 ) ) ;
#127 = FACE_OUTER_BOUND ( 'NONE', #6, .T. ) ;
#128 = CONICAL_SURFACE ( 'NONE', #212, 1.999999999999995337, 0.7853981633974516097 ) ;
#129 = ADVANCED_BREP_SHAPE_REPRESENTATION ( '321385', ( #214, #51, #243 ), #97 ) ;
#130 = CC_DESIGN_DATE_AND_TIME_ASSIGNMENT ( #239, #65, ( #192 ) ) ;
#131 = FACE_OUTER_BOUND ( 'NONE', #135, .T. ) ;
#132 = FACE_OUTER_BOUND ( 'NONE', #119, .T. ) ;
#133 = CC_DESIGN_DATE_AND_TIME_ASSIGNMENT ( #75, #109, ( #216 ) ) ;
#134 = AXIS2_PLACEMENT_3D ( 'NONE', #209, #70, #105 ) ;
#135 = EDGE_LOOP ( 'NONE', ( #58 ) ) ;
#136 = FACE_BOUND ( 'NONE', #238, .T. ) ;
#137 = SECURITY_CLASSIFICATION_LEVEL ( 'unclassified' ) ;
#138 = APPROVAL_ROLE ( '' ) ;
#139 = DIRECTION ( 'NONE',  ( 0.0000000000000000000, 1.000000000000000000, 0.0000000000000000000 ) ) ;
#140 = ORIENTED_EDGE ( 'NONE', *, *, #95, .T. ) ;
#141 = CIRCLE ( 'NONE', #54, 1.999999999999995337 ) ;
#142 = DIRECTION ( 'NONE',  ( 1.000000000000000000, 0.0000000000000000000, 0.0000000000000000000 ) ) ;
#143 = EDGE_LOOP ( 'NONE', ( #140 ) ) ;
#144 = PERSON_AND_ORGANIZATION ( #225, #150 ) ;
#145 = VERTEX_POINT ( 'NONE', #107 ) ;
#146 = CARTESIAN_POINT ( 'NONE',  ( 4.885231259955590439E-14, 1.999999999999990452, 13.99185842870425134 ) ) ;
#147 = MECHANICAL_CONTEXT ( 'NONE', #66, 'mechanical' ) ;
#148 = DIRECTION ( 'NONE',  ( 1.719966863169618913E-30, -1.000000000000000000, 4.926180884986521077E-16 ) ) ;
#149 = CARTESIAN_POINT ( 'NONE',  ( 2.793185071074506684E-13, 1.599999999999987876, 80.00000000000000000 ) ) ;
#150 = ORGANIZATION ( 'UNSPECIFIED', 'UNSPECIFIED', '' ) ;
#151 = CYLINDRICAL_SURFACE ( 'NONE', #210, 1.999999999999993561 ) ;
#152 = DATE_AND_TIME ( #108, #32 ) ;
#153 = CARTESIAN_POINT ( 'NONE',  ( 4.637891656288085032E-14, 6.543667574467115517E-15, 13.28344964840855447 ) ) ;
#154 = DIRECTION ( 'NONE',  ( -3.491481338843133355E-15, 9.031770143711729009E-17, -1.000000000000000000 ) ) ;
#155 = CIRCLE ( 'NONE', #177, 1.599999999999994982 ) ;
#156 = DIRECTION ( 'NONE',  ( -2.558312919069811826E-30, 1.000000000000000000, -7.201010693137456519E-16 ) ) ;
#157 = CIRCLE ( 'NONE', #235, 2.408999999999991370 ) ;
#158 = DIRECTION ( 'NONE',  ( 3.491481338843133355E-15, -9.031770143711729009E-17, 1.000000000000000000 ) ) ;
#159 = DIRECTION ( 'NONE',  ( -1.719966863169618913E-30, 1.000000000000000000, -4.926180884986521077E-16 ) ) ;
#160 = EDGE_LOOP ( 'NONE', ( #61 ) ) ;
#161 = ORIENTED_EDGE ( 'NONE', *, *, #178, .T. ) ;
#162 = PERSON_AND_ORGANIZATION ( #225, #150 ) ;
#163 = PRODUCT ( '321385', '321385', '', ( #147 ) ) ;
#164 = EDGE_LOOP ( 'NONE', ( #187 ) ) ;
#165 = PERSON_AND_ORGANIZATION_ROLE ( 'design_owner' ) ;
#166 = EDGE_CURVE ( 'NONE', #185, #185, #2, .T. ) ;
#167 = EDGE_LOOP ( 'NONE', ( #161 ) ) ;
#168 = CALENDAR_DATE ( 2021, 26, 11 ) ;
#169 = VERTEX_POINT ( 'NONE', #30 ) ;
#170 = FACE_BOUND ( 'NONE', #84, .T. ) ;
#171 = APPROVAL_PERSON_ORGANIZATION ( #144, #10, #138 ) ;
#172 = ADVANCED_FACE ( 'NONE', ( #191, #127 ), #151, .T. ) ;
#173 = VERTEX_POINT ( 'NONE', #149 ) ;
#174 = PERSON_AND_ORGANIZATION ( #225, #150 ) ;
#175 = CIRCLE ( 'NONE', #71, 2.408999999999999364 ) ;
#176 = APPROVAL ( #121, 'UNSPECIFIED' ) ;
#177 = AXIS2_PLACEMENT_3D ( 'NONE', #49, #90, #111 ) ;
#178 = EDGE_CURVE ( 'NONE', #48, #48, #157, .T. ) ;
#179 = PLANE ( 'NONE',  #8 ) ;
#180 = FACE_OUTER_BOUND ( 'NONE', #184, .T. ) ;
#181 = ADVANCED_FACE ( 'NONE', ( #131 ), #179, .T. ) ;
#182 = DIRECTION ( 'NONE',  ( -3.491481338843133355E-15, -4.926180884986521077E-16, -1.000000000000000000 ) ) ;
#183 = VERTEX_POINT ( 'NONE', #240 ) ;
#184 = EDGE_LOOP ( 'NONE', ( #43 ) ) ;
#185 = VERTEX_POINT ( 'NONE', #146 ) ;
#186 = PERSON_AND_ORGANIZATION ( #225, #150 ) ;
#187 = ORIENTED_EDGE ( 'NONE', *, *, #196, .F. ) ;
#188 = PRODUCT_DEFINITION_FORMATION_WITH_SPECIFIED_SOURCE ( 'ANY', '', #163, .NOT_KNOWN. ) ;
#189 = CC_DESIGN_PERSON_AND_ORGANIZATION_ASSIGNMENT ( #186, #165, ( #163 ) ) ;
#190 = CARTESIAN_POINT ( 'NONE',  ( 4.885231259955590439E-14, -1.263712492114123682E-15, 13.99185842870425134 ) ) ;
#191 = FACE_OUTER_BOUND ( 'NONE', #9, .T. ) ;
#192 = PRODUCT_DEFINITION ( 'UNKNOWN', '', #188, #72 ) ;
#193 = APPLICATION_CONTEXT ( 'configuration controlled 3d designs of mechanical parts and assemblies' ) ;
#194 = LOCAL_TIME ( 11, 3, 16.00000000000000000, #25 ) ;
#195 = DIRECTION ( 'NONE',  ( 1.719966863169618913E-30, -1.000000000000000000, 4.926180884986521077E-16 ) ) ;
#196 = EDGE_CURVE ( 'NONE', #145, #145, #141, .T. ) ;
#197 = FACE_BOUND ( 'NONE', #143, .T. ) ;
#198 = DIRECTION ( 'NONE',  ( 3.153425691349006731E-31, 1.000000000000000000, 9.031770143711729009E-17 ) ) ;
#199 = FACE_OUTER_BOUND ( 'NONE', #167, .T. ) ;
#200 = PERSON_AND_ORGANIZATION_ROLE ( 'creator' ) ;
#201 = AXIS2_PLACEMENT_3D ( 'NONE', #55, #96, #159 ) ;
#202 = CARTESIAN_POINT ( 'NONE',  ( 4.637891656288085032E-14, 2.408999999999998032, 13.28344964840855447 ) ) ;
#203 = APPROVAL_ROLE ( '' ) ;
#204 = PLANE ( 'NONE',  #87 ) ;
#205 = PRODUCT_DEFINITION_SHAPE ( 'NONE', 'NONE',  #192 ) ;
#206 = CALENDAR_DATE ( 2021, 26, 11 ) ;
#207 = CONICAL_SURFACE ( 'NONE', #113, 2.408999999999999364, 0.5235987755982919323 ) ;
#208 = CARTESIAN_POINT ( 'NONE',  ( 4.637891656288085663E-14, 2.408999999999998032, 13.28344964840855624 ) ) ;
#209 = CARTESIAN_POINT ( 'NONE',  ( 3.746190840796322380E-30, 5.285554158956813583E-31, 1.072951700792301621E-15 ) ) ;
#210 = AXIS2_PLACEMENT_3D ( 'NONE', #34, #74, #227 ) ;
#211 = DIRECTION ( 'NONE',  ( 3.491481338843133355E-15, 4.926180884986521077E-16, 1.000000000000000000 ) ) ;
#212 = AXIS2_PLACEMENT_3D ( 'NONE', #80, #117, #139 ) ;
#213 = CC_DESIGN_PERSON_AND_ORGANIZATION_ASSIGNMENT ( #118, #200, ( #192 ) ) ;
#214 = MANIFOLD_SOLID_BREP ( 'Corps-Déplacer/Copier1[1]', #88 ) ;
#215 = EDGE_LOOP ( 'NONE', ( #103 ) ) ;
#216 = SECURITY_CLASSIFICATION ( '', '', #137 ) ;
#217 = VERTEX_POINT ( 'NONE', #220 ) ;
#218 = FACE_OUTER_BOUND ( 'NONE', #215, .T. ) ;
#219 = DATE_AND_TIME ( #206, #82 ) ;
#220 = CARTESIAN_POINT ( 'NONE',  ( 4.637891656288085663E-14, 2.408999999999998032, 13.28344964840855624 ) ) ;
#221 = ORIENTED_EDGE ( 'NONE', *, *, #166, .T. ) ;
#222 = DIRECTION ( 'NONE',  ( -3.491481338843133355E-15, -4.926180884986521077E-16, -1.000000000000000000 ) ) ;
#223 = ORIENTED_EDGE ( 'NONE', *, *, #112, .F. ) ;
#224 = ADVANCED_FACE ( 'NONE', ( #18 ), #78, .T. ) ;
#225 = PERSON ( 'UNSPECIFIED', 'UNSPECIFIED', 'UNSPECIFIED', ('UNSPECIFIED'), ('UNSPECIFIED'), ('UNSPECIFIED') ) ;
#226 = DIRECTION ( 'NONE',  ( 0.0000000000000000000, 1.000000000000000000, 0.0000000000000000000 ) ) ;
#227 = DIRECTION ( 'NONE',  ( 3.153425691349006731E-31, 1.000000000000000000, 9.031770143711729009E-17 ) ) ;
#228 = AXIS2_PLACEMENT_3D ( 'NONE', #153, #211, #148 ) ;
#229 = AXIS2_PLACEMENT_3D ( 'NONE', #22, #182, #11 ) ;
#230 = ADVANCED_FACE ( 'NONE', ( #197, #5 ), #128, .T. ) ;
#231 = CC_DESIGN_SECURITY_CLASSIFICATION ( #216, ( #188 ) ) ;
#232 = EDGE_LOOP ( 'NONE', ( #102 ) ) ;
#233 = PERSON_AND_ORGANIZATION ( #225, #150 ) ;
#234 = FACE_OUTER_BOUND ( 'NONE', #20, .T. ) ;
#235 = AXIS2_PLACEMENT_3D ( 'NONE', #14, #222, #156 ) ;
#236 = DIRECTION ( 'NONE',  ( 3.491481338843133355E-15, 4.926180884986521077E-16, 1.000000000000000000 ) ) ;
#237 = CARTESIAN_POINT ( 'NONE',  ( 2.793185071074506684E-13, -7.225416114969383207E-15, 80.00000000000000000 ) ) ;
#238 = EDGE_LOOP ( 'NONE', ( #223 ) ) ;
#239 = DATE_AND_TIME ( #168, #194 ) ;
#240 = CARTESIAN_POINT ( 'NONE',  ( 1.396592535537252948E-15, 2.408999999999997588, 0.3999999999999999112 ) ) ;
#241 = CARTESIAN_POINT ( 'NONE',  ( 0.0000000000000000000, 0.0000000000000000000, 0.0000000000000000000 ) ) ;
#242 = CARTESIAN_POINT ( 'NONE',  ( 4.637891656288085663E-14, -1.199730639399944625E-15, 13.28344964840855624 ) ) ;
#243 = AXIS2_PLACEMENT_3D ( 'NONE', #241, #67, #142 ) ;
ENDSEC;
END-ISO-10303-21;
